Oops, an error
Loading. Please wait.

Venice Queen Bass Tab

version 1
version 1

Live

Whole song

Interactive

3,371 views 1 this week
no commentswrite comment
1 2 3 4 5
please rate
add to favorites
launch autoscroll
font size
0
reset
guitar tuner
Autoscroll
slow
fast
+/-
esc
set tempo
stop
Help us to improve Ultimate-Guitar.com Take our survey!
×
Author
Difficulty
novice
Standard tuning
Soft tone

Intro:
G|--------|
D|--------|
A|--------|
E|-0------|

G|-------------|-------------|  
D|-0-0---------|------0------|\
A|------2------|-2-2---------| \
E|----------0--|----------0--|  \
                           Basically just alternating between these 2 paterns
G|-------------|-------------|  /
D|-0-0---------|-------------| /
A|------2------|-2-2--0------|/  
E|----------0--|----------0--|


Figure 1:

G|--------|--------|--------|--------|
D|-2-2-2-2|-2-2-2-2|-2-2-2-2|-0--1---|
A|--------|--------|--------|--------|
E|--------|--------|--------|--------|

G|--------|--------|--------|--------|
D|-2-2-2-2|-2-2-2-2|-2-2-2-2|-0--1---|
A|--------|--------|--------|--------|
E|--------|--------|--------|--------|

G|--------|--------|--------|--------|
D|-2-2-2-2|-2-2-2-2|-2-2-2-2|-0--1---|
A|--------|--------|--------|--------|
E|--------|--------|--------|--------|

G|----------|-----------|----------|-----------|
D|----------|-----------|----------|-----------|
A|-33--33---|-33--33-3-3|-00--00---|-00--00-0-0|
E|----------|-----------|----------|-----------| Repeat

Figure 2:

G|------------|-------------|------------|-------------|
D|-2----2-2-2-|-------------|-2----2-2-2-|-------------|
A|------------|--3--2--0----|------------|--3--2--0----|
E|------------|-------------|------------|-------------|

G|------------|-------------|------------|-------------|
D|-2----2-2-2-|-------------|-2--2--2-2-2|/12-12-12-12-|
A|------------|--3--2--0----|------------|-------------|
E|------------|-------------|------------|-------------|


Figure 3:

G|---------|---------|---------|---------|
D|-7-7-7-7-|-5-5-5-5-|---------|---------|
A|---------|---------|-8-8-8-8-|-5-5-5-5-| repeats until drums stop, then:
E|---------|---------|---------|---------|



G|------------------|------------------|
D|-7-7-7-7--7-7-7-7-|-5-5-5-5--5-5-5-5-|
A|------------------|------------------|
E|------------------|------------------|

E|-------------------|------------------------------|
D|-------------------|------------------------------|
A|-8-8--8-8-8--0-0-0-|-5-5--5-5-5/17-17-17-17-19-19-| 
E|-------------------|------------------------------|



G|------------------|---------------------------|
D|-7-7-7-7--7-7-9-7-|-5-5-5-5------5-----5------|
A|------------------|----------5-7---5-7---5-7--|
E|------------------|---------------------------|

E|-------------------------|------------------------------|
D|-------------------------|------------------------------|
A|-8-8--8-8-8-8--0-0-0-0-0-|-5-5--5-5-5/17-17-17-17-19-19-| 
E|-------------------------|------------------------------|



G|------------------|---------------------------|
D|-7-7-7-7--7-7-9-7-|-5-5-5-5------5-----5------|
A|------------------|----------5-7---5-7---5-7--|
E|------------------|---------------------------|

E|-------------------------|------------------------------|
D|-------------------------|------------------------------|
A|-8-8--8-8-8-8--8-8-8-8-8-|-5----------------------------| 
E|-------------------------|------------------------------|

Thats about it, enjoy
Suggest correction
Give kudos to tab author, rate the tab!
1 2 3 4 5
comments
print report bad tab
guest
You may want to rate the tab now too:
select rating
Please do not post tabs as comments. Select "correction" instead!