Oops, an error
Loading. Please wait.

Venice Queen Bass Tab

version 3
version 3

Whole song

Interactive

1,064 views 1 this week
no commentswrite comment
1 2 3 4 5
3 more votes to show rating
add to favorites
launch autoscroll
font size
0
reset
guitar tuner
Autoscroll
slow
fast
+/-
esc
set tempo
stop
Help us to improve Ultimate-Guitar.com Take our survey!
×
Author
Difficulty
intermediate
0:33
G|--------------------------------------------------------------------------|
D|--------------------------------------------------------------------------|
A|77777777777777-5-5-777777777777-5-5-77777777777777-5-5-7------------------|
E|--------------------------------------------------------------------------|

0:43
G|--------------------------------------------------------------------------|
D|--------------------------------------------------------------------------|
A|77777777-33-5-3-55--33-5-3-7----------------------------------------------|
E|--------------------------------------------------------------------------|

0:49
G|--------------------------------------------------------------------------|
D|--------------------------------------------------------------------------|
A|77777777777777-5-5-777777777777-5-5-77777777777777-5-5-7------------------|
E|--------------------------------------------------------------------------|


0:59
G|--------------------------------------------------------------------------|
D|--------------------------------------------------------------------------|
A|77777777-33-5-3-55--33-5-3-7----------------------------------------------|
E|--------------------------------------------------------------------------|
   



(x5)
G|--------------------------------------------------------------------------|
D|--------------------------------------------------------------------------|
A|77777777777777-5-5-777777777777-5-5-77777777777777-5-5-7------------------|
E|--------------------------------------------------------------------------|

G|--------------------------------------------------------------------------|
D|--------------------------------------------------------------------------|
A|77777777-33-5-3-55--33-5-3-7----------------------------------------------|
E|--------------------------------------------------------------------------|




2:32
G|--------------------------------------------------------------------------|
D|--------------------------------------------------------------------------|
A|77777777777777-5-5-777777777777-5-5-77777777777777-5-5-7------------------|
E|--------------------------------------------------------------------------|




2:53
G|--------------------------------------------------------------------------|
D|--------------------------------------------------------------------------|
A|7777-5-5-7777-5-5-7777-5-5-3-3-3-777--17171717----------------------------|
E|--------------------------------------------------------------------------|
(x4)

3:35
G|--------------------------------------------------------------------------|
D|-77777777-5555555555-333333-----------------------------------------------|
A|---------------------------33333-55555------------------------------------|
E|--------------------------------------------------------------------------|

G|--------------------------------------------------------------------------|
D|-77777777-5555555555-333333-----------------------------------------------|
A|---------------------------33333-55555------------------------------------|
E|--------------------------------------------------------------------------|

G|--------------------------------------------------------------------------|
D|-77777777-5555555555-333333-----------------------------------------------|
A|---------------------------33333-55555------------------------------------|
E|--------------------------------------------------------------------------|

G|--------------------------------------------------------------------------|
D|-77777777-5555555555-333333-----------------------------------------------|
A|---------------------------33333-55555---161616---------------------------|
E|--------------------------------------------------------------------------|

G|--------------------------------------------------------------------------|
D|-77777777-5555555555-333333-----------------------------------------------|
A|---------------------------33333-55555---161616---------------------------|
E|--------------------------------------------------------------------------|

5:32
G|--------------------------------------------------------------------------|
D|-77777777-5555555555-333333-----------------------------------------------|
A|---------------------------33333-55555---161616---------------------------|
E|--------------------------------------------------------------------------|

G|--------------------------------------------------------------------------|
D|-77777777-5555555555-333333-----------------------------------------------|
A|---------------------------33-33-3-5*-------------------------------------|
E|--------------------------------------------------------------------------|


Suggest correction
Give kudos to tab author, rate the tab!
1 2 3 4 5
comments
print report bad tab
guest
You may want to rate the tab now too:
select rating
Wanna post a correction for this tab? Suggest correction