Oops, an error
Loading. Please wait.

Venice Queen Tab

version 4
version 4

Whole song

Interactive

3,816 views 1 this week
no commentswrite comment
1 2 3 4 5
x 6
add to favorites
launch autoscroll
font size
0
reset
how to read this tab
guitar tuner
Autoscroll
slow
fast
+/-
esc
set tempo
stop
Help us to improve Ultimate-Guitar.com Take our survey!
×
Author
Difficulty
novice
Tabbed by guitar_guyy @ Ultimate-guitar.com
Tuning is as standard. Hope you enjoy! great song this is...

Intro
                        3rd time    4th time
                                   G5  Am
-----7-----7----7----7-|--------:|------5-----:|
-----------------------|--8-7---:|--8---5-----:|
---9-----9----9----9---|--------:|--7---5-----:|
-9-----9----9----9-----|--------:|--5---7-----:|
-----------------------|--------:|------7-----:|
-----------------------|--------:|------5-----:|

2.25
Little fill (just before 4th time bar)

-10h12p10-----------|
-----------12-12\---|
--------------------|
--------------------|
--------------------|
--------------------|

Interlude (2.44)

Acoustic guitar part.

  E5    D5      Em  D
----------------12--10----|
----------------12--10----|
---9--x--7------12--11----|
---9--x--7--X3--14--12----|
---7--x--5------14--12----|
----------------12--10----|

When drums come in (elecrtic part)
Listen to the track for rhythm

                                                1st time
--12------12--10--10------12----12----12----|-10----10-----:|
-----12---------10--10------12----12----12--|---10----10---:|
--------12-------------X3-----12----12----12|-----11----11-:|
--------------------------------------------|--------------:|
--------------------------------------------|--------------:|
--------------------------------------------|--------------:|

After you've played this once, John changes the last chords inversion (this is played at 
end of each sequence till the change at 3.34)

   2nd time
-14----14-----|
---15----15---|
-----14----14-|
--------------|
--------------|
--------------|

I know you... (3.34)

       A               G               F              Dsus2
-5--5--5--5--5---3--3--3--3--3---1--1--1--1--1---0--0--0--0--0---|
--5--5--5--5--5---3--3--3--3--3---1--1--1--1--1---3--3--3--3--3--|
---6--6--6--6--6---4--4--4--4--4---2--2--2--2--2---2--2--2--2--2-|
-----------------------------------------------------------------|
-----------------------------------------------------------------|
-----------------------------------------------------------------|

Guitar Part (4.34)

--------------8-7-----10-8-----|
-8h10---8h10------10-------10--|
-------------------------------|
-------------------------------|
-------------------------------|
-------------------------------|

End (5.32)
             1st  2nd
----------1-|-0-|-----||
----------1-|-3-|-----||
----------2-|-2-|--7--||
--7---5---3-|---|--7--||
--7---5---3-|---|--5--||
--5---3---1-|---|-----||
Suggest correction
comments
print report bad tab
guest
You may want to rate the tab now too:
select rating
Wanna post a correction for this tab? Suggest correction