Oops, an error
Loading. Please wait.

Walkabout Tab

version 1
version 1

Whole song

Interactive

23,442 views 93 this week
4 commentsread comments
1 2 3 4 5
x 9
add to favorites
launch autoscroll
font size
0
reset
how to read this tab
guitar tuner
Autoscroll
slow
fast
+/-
esc
set tempo
stop
Help us to improve Ultimate-Guitar.com Take our survey!
×
Walkabout
Red hot chili peppers

[Intro]
e|------------------------------------------------------------------|
B|------------------------------------------------------------------|
G|-9--7----------------9--7-----------------9--7--------------------|
D|------5--7b(8)r7-5-------5--7b(8)r7p5-0--------5--7b(9)r7-5-------|
A|------------------0-----------------------------------------0-----|
E|------------------------------------------------------------------|

e|--------------------------- --------------------------------------|
B|--------------------------- --------------------------------------|
G|--------------------------- --------------------------------------|
D|--------------------------- ----5--7--7b(8)r7-5-7/9---------------|
A|-0--3--5-5b(6)r5-3-/7------ --7-----------------------------------|
E|--------------------------- --------------------------------------|

e|---------------------------------------|
B|---------------------------------------|
G|-9--7----------------------------------|
D|--------5--7b(8)r7--5-0----------------|
A|------------------------------3--------|
E|---------------------------------------|

[Riff]
e|----------7-7-7-7-7-x-x-x--------- ----------------------------------|
B|--x-x-x-x-5-5-5-5-5-x-x-x---8-x-x- -7-7-7-7-----x-x---7------x-7-7---|
G|--x-x-x-x-5-5-5-5-5-x-x-x---5-x-x- -5-5-5-5-----x-x---5------x-5-5---|
D|---------------------------------------------------------------------|
A|---------------------------------------------------------------------|
E|---------------------------------------------------------------------|

   repeat
e|--------------------------------|
B|-7-------x-x-x-x-7-5~~----------|
G|-5-------x-x-x-x-5-5~~----------|
D|-----------------------x-5 -----|
A|--------------------------------|
E|--------------------------------|

  [Chorus]
e|---------------------------------|
B|---------------------------------|
G|---------------------------------|
D|--------------------5------------|
A|---7---5-------------------------|
E|-----------7----------6-5-(8-7-)-|

 [Bridge]
e|--------------------------|
B|--------------------------|
G|--10--9--8--x-7---7-------|
D|--9---8--7--x-6---6-------|
A|--11--9--9--x-7---7-------|
E|--9------7----------x-----|

 [Guitar Solo]
e|-------------------------------=----------------------5-8b(11)-r5-5---|
B|-------------------------------=--------------------5------------8----|
G|-9b(11)   r(9)-5h7-7~~------5~~=---5-7b(9)r7-5-7b(9)------------------|
D|-----------------------5-6-7---=-7------------------------------------|
A|----------------------------------------------------------------------|
E|----------------------------------------------------------------------|

e|--------------x-x-x10b(12)r8--8-----------------------12b(15)---------|
B|-8b(10)-------x-x-x10b(12)r-10--10b(14)r  8h10-10~~~~-----------------|
G|---------7-7/----------------------------------------x----------------|
D|----------------------------------------------------------------------|
A|----------------------------------------------------------------------|
E|----------------------------------------------------------------------|

e|-------------------------------------------10b(12)--10-8-10-8------|
B|-x-------------------------------------8---------------------------|
G|-x--5---------5-----7b(9)---7-5-7~~--9---9-------------------------|
D|--7-5-5h7-7-5----7-5-----------------------------------------------|
A|-------------------------------------------------------------------|
E|-------------------------------------------------------------------|

e|-8(9)--------8-------------------------------------------------------|
B|-----10-8-10---10-8--------------------------------------------------|
G|--------8------------10\9-\5---------------------------------5-------|
D|-----------------------------7-5-7-7---------------------5/7---7-5---|
A|------------------------------------5-5\3-5-5b(7)r5-3-5/7------------|
E|---------------------------------------------------------------------|

Yeah..........., .,.,,.,.,.,.,.,.,.,.,


************************************

| p    Pull-off
| /    Slide up
| x    Dead note
| ~    Vibrato
| r    Release
| h    Hammer-on
| (n)  Ghost note
| \    Slide down

************************************
Suggest correction
comments
print report bad tab
4 comments total. Showing first comments.
0 reply
Linke_Loetje 10 Feb 22, 2007 04:59 PM

pretty accurate!

0 reply
Linke_Loetje 10 Feb 22, 2007 05:14 PM

although i think this part

--------------------------- --------------------------------------
--------------------------- --------------------------------------
--------------------------- --------------------------------------
--------------------------- ----5--7--7b(8)r7-5-7/9---------------
-0--3--5-5b(6)r5-3-/7------ --7-----------------------------------
--------------------------- --------------------------------------

is like

--------------------------- --------------------------------------
--------------------------- --------------------------------------
--------------------------- --------------------------------------
--------------------------- ----5--7--7b(8)r7-5h7p5h7/9-----------
-0--3--5-5b(6)r5-3h5p3h5/7- --7-----------------------------------
--------------------------- --------------------------------------

0 reply
Linke_Loetje 10 Feb 24, 2007 12:10 PM

sorry little mistak

--------------------------- --------------------------------------
--------------------------- --------------------------------------
--------------------------- --------------------------------------
--------------------------- ----5--7--7b(8)r7-5-7/9---------------
-0--3--5-5b(6)r5-3-/7------ --7-----------------------------------
--------------------------- --------------------------------------

is like

--------------------------- --------------------------------------
--------------------------- --------------------------------------
--------------------------- --------------------------------------
--------------------------- ----5--7--7b(8)r7-5h7p5/9-----------
-0--3--5-5b(6)r5-3h5p3/7- --7-----------------------------------
--------------------------- --------------------------------------

guest
You may want to rate the tab now too:
select rating
Wanna post a correction for this tab? Suggest correction