Oops, an error
Loading. Please wait.

Walkabout Tab

version 2
version 2

Whole song

Interactive

16,212 views 27 this week
4 commentsread comments
1 2 3 4 5
excellent!
x 9
add to favorites
launch autoscroll
font size
0
reset
how to read this tab
guitar tuner
Autoscroll
slow
fast
+/-
esc
set tempo
stop
Help us to improve Ultimate-Guitar.com Take our survey!
×
Author
------------------------------------------------------------------------------
                             walkabout - red hot chili peppers
------------------------------------------------------------------------------
Tabbed by:angel
Email:balder-a@hotmail.com

Tuning:standard

I've been searching a long time for the solo on the intro and a good version of the 
so at last a decided  to tab it out myself. Be careful when playing the solo, it's played 
heavy distortion and some other effects, maybe wah-wah or something. Enjoy

intro:
both guitars play the first riff:
---------------------------------------------------------------------------|
---------------------------------------------------------------------------|
-9--7----------------9--7-----------------9--7-----------------------------|
------5--7b(8)r7-5-------5--7b(8)r7p5-0--------5--7b(9)r7-5----------------|
------------------0-----------------------------------------0--------------|
---------------------------------------------------------------------------|


|---------------------------                                     |--|
|-------------------------------------------------------------------|
|-0--3--5-5br--3/7--------------------------------------------------|
|-------------------------------------------------------------------|

then one guitar play this( fast with lot of distortion)
e|-------------------------7-8-10-12b--------------------------------------|
B|--------------------10p8-------------------------------------------------|
G|-----------7p5-9p7-------------------------------------------------------|
D|----5-7p5----------------------------------------------------------------|
A|5-7----------------------------------------------------------------------|
E|-------------------------------------------------------------------------|

e|---------------------------------------------------------------------------|
B|---------------------------------------------------------------------------|
G|---------------------------------------------------------------------------|
D|---5-7br-5-7/9-------------------------------------------------------------|
A|-7-------------------------------------------------------------------------|
E|---------------------------------------------------------------------------|

e|---------------------------------------------------------------------------|
B|-----10p8------------------------------------------------------------------|
G|----------9p7--------------------------------------------------------------|
D|---5-----------7p5---------------------------------------------------------|
A|-7-----------------7p5-----------------------------------------------------|
E|-------------------------7-5-7---------------------------------------------|

1.guitar
e|---------------------------------------------------------------------------|
B|---------------------------------------------------------------------------|
G|-9-7-----------------------------------------------------------------------|
D|-----5-7br-5---------------------------------------------------------------|
A|-------------0---3---------------------------------------------------------|
E|---------------------------------------------------------------------------|
 | 2. guitar
e|-12-10-----------8~-6~--6h8p6/5--------------------------------------------|
B|-------8-10br-8------------------------------------------------------------|
G|---------------------------------------------------------------------------|
D|---------------------------------------------------------------------------|
A|---------------------------------------------------------------------------|
E|---------------------------------------------------------------------------|

Verse:
e|7-7-7-x-x-x-x-7------------------------------------------------------------|
B|5-5-5-x-x-x-x-5-8-7-7-7-x-x-x-x-7-x-x-7-7----------------------------------|
G|5-5-5-x-x-x-x-5-5-5-5-5-x-x-x-x-5-x-x-5-5----------------------------------|
D|---------------------------------------------------------------------------|
A|---------------------------------------------------------------------------|
E|---------------------------------------------------------------------------|

e|7-7-7-x-x-x-x-7-8-7--------------------------------------------------------|
B|5-5-5-x-x-x-x-5-5-5-7-7-7-x-x-x-x-7-x-x-7-7--------------------------------|
G|5-5-5-x-x-x-x-5-5-5-5-5-5-x-x-x-x-5-x-x-5-5--------------------------------|
D|---------------------------------------------------------------------------|
A|---------------------------------------------------------------------------|
E|---------------------------------------------------------------------------|

it's mostly this two riff in the verse

chorus:
e|---------------------------------------------------------------------------|
B|-----1------------1--------------------------------------------------------|
G|-2-0---------2-0-----------------------------------------------------------|
D|--------2-1---------2-1-4-3------------------------------------------------|
A|---------------------------------------------------------------------------|
E|---------------------------------------------------------------------------|

back to verse again

over the next chorus this solo is going in the background:
e|--------------------------------5/-----------------------------------------|
B|--------------------------------5/-----------------------------------------|
G|-5p2----------------------------5/-----------------------------------------|
D|-----5-2--------------------2-5--------------------------------------------|
A|---------5-5b-3-5b-3-0-3-5b------------------------------------------------|
E|---------------------------------------------------------------------------|

intrudelude:
play this riff to times:
e|---------------------------------------------------------------------------|
B|---------------------------------------------------------------------------|
G|10-9-8-x-7-7--10-10--9-9-8-x-7-7-------------------------------------------|
D|9--8-7-x-6-6---9--9--8-8-7-x-6-6-------------------------------------------|
A|11-9-9-x-7-7--11-11--9-9-9-x-7-7-------------------------------------------|
E|9----7---------9--9------7-------------------------------------------------|

solo(2. guitar plays verse riff):
e|---------------------------------12b-10-12-12~-----15b-12----------12-17b\-|
B|----------------------------------------------------------15-12-15---------|
G|9br-7h9-9------7-9b-------7-9b-7---------------7-9-------------------------|
D|----------7-10-------7-10--------------------------------------------------|
A|---------------------------------------------------------------------------|
E|---------------------------------------------------------------------------|

e|------------------------------------13b-10-12-10-12b-10--------------------|
B|----------------------------------8---------------------12b-10-12-10-------|
G|---------------7-9b-7-9b-7-9b-7-9------------------------------------12b-9-|
D|7-9b-7-9b-7-9b-------------------------------------------------------------|
A|---------------------------------------------------------------------------|
E|---------------------------------------------------------------------------|

e|---------------------------------------------------------------------------|
B|8--------------------------------------------------------------------------|
G|--9b-7-----------------------7-9b-7----------------------------------------|
D|-------7b-5------------5-7/9--------9-7-9~---------------------------------|
A|------------7-5b-7-5b-7----------------------------------------------------|
E|---------------------------------------------------------------------------|

and than back to verse again

outro:
e|---------------------------------------------------------------------------|
B|--------------------------------7b-x-x-7b-x-x-7b-x-x-7-7-7b-x-x-7b-x-x-7b--|
G|5-x-x-5-x-x-5-x-x-5-x-x-5-x-x-5----------------------5-5-------------------|
D|4-x-x-4-x-x-4-x-x-4-x-x-4-x-x-4--------------------------------------------|
A|---------------------------------------------------------------------------|
E|---------------------------------------------------------------------------|

e|------------------------------------------------7b-------------------------|
B|-----7b-x-x-7b-x-x-7b-x-x-7-7--7b-x-x-7b-x-x-7b----------------------------|
G|--------------------------5-5---------------------------------5b-----5b----|
D|-----------------------------------------------------------5-7---5-7-------|
A|3h5b-------------------------------------------------3h5b------------------|
E|---------------------------------------------------------------------------|

e|--------------------------------------------10-12b-------------------------|
B|--------------------------------------10-12--------------------------------|
G|----7b-----5b----5b-----5b------7--9b-10-12--------------------------------|
D|5-7----5-7----5-7---5-7---------7--9b--------------------------------------|
A|---------------------------------------------------------------------------|
E|---------------------------------------------------------------------------|
 play this riff 8 times
e|7-7-7-7-7-7-7--------------------------------------------------------------|
B|5-5-7-5-5-5-5-5-7-7-7-7-8-8-8-8--------------------------------------------|
G|5-5-5-5-5-5-5-5-5-5-5-5-5-5-5-5--------------------------------------------|
D|---------------------------------------------------------------------------|
A|---------------------------------------------------------------------------|
E|---------------------------------------------------------------------------|

e|7---------7---5h7p5--------------------------------------------------------|
B|5--7--8---5---------5------------------------------------------------------|
G|5--5--5---5----------------------------------------------------------------|
D|---------------------------------------------------------------------------|
A|---------------------------------------------------------------------------|
E|---------------------------------------------------------------------------|

| /  slide up
| \  slide down
| h  hammer-on
| p  pull-off
| ~  vibrato
| +  harmonic
| x  Mute note
=============================================================================
Suggest correction
What's this?
You can suggest a correction to this tab. Community and Mods will review your correction and vote to approve or reject it.
comments
print report bad tab
4 comments total. Showing first comments.
0 reply
smno 24 wrote on March 21 2007, 11:16 am

veary impressin!!!!!!!

0 reply
shanenahs 81 wrote on November 15 2007, 08:01 pm

You should redo the chorus and the verse following the chorus, you're almost there! would be perfect besides those two
parts! good job though! i'll post the correction soon when i have time.

0 reply
mattycorcoran 43 wrote on May 26 2013, 11:34 pm

I'm having difficulty transcribing the cup and straw riffs.. Do you think you could upload those?

Nice tab mate XD

guest
You may want to rate the tab now too:
select rating
Please do not post tabs as comments. Select "correction" instead!