Oops, an error
Loading. Please wait.

Walkin On Down The Road Bass

version 1
version 1

Whole song

Interactive

6,501 views 3 this week
3 commentsread comments
1 2 3 4 5
x 9
add to favorites
×
Save as Personal and add changes to this tab that will be seen only by you. Learn more ›
launch autoscroll
font size
0
reset
guitar tuner
Autoscroll
slow
fast
+/-
esc
set tempo
stop
Red Hot Chili Peppers
Walkin' on Down the Road

the whole song is almost entirely composed by a main riff, it is so fast as difficult, so 
Here there is what I do  when I play this song.


G |----7h8-5-----5--------7h8-5-----5h6-5----5--------------------------
D |------------7---7--------------7-------------------------------------
A |-0--------0---------0--------0----------0---0------------------------
E |---------------------------------------------------------------------
    S  P   P S P P P   S  P   P S P P    P S P S 




Suggest correction
comments
print report bad tab
3 comments total.
+3 reply
BobSlay 10 Apr 08, 2008 03:53 AM

G |----7h8-5-------5----------7h8-5---------5h6---5-----
D |------------7-------7--------------5h7---------------
A |-0--------0---0---0------0-------0-----0-----0---0---
E |-----------------------------------------------------
S P P S P s P s p s p p s p s p s p s

0 reply
BobSlay 10 Apr 08, 2008 03:58 AM

The P's and S's didn't end up in the right place, but im sure you can figure it out.

0 reply
dvr555 10 Aug 30, 2008 12:04 PM

yeah Bobslay is right there are more open A's than you put

guest
You may want to rate the tab now too:
select rating
Wanna post a correction for this tab? Suggest correction