Oops, an error
Loading. Please wait.

Warlocks Bass Tab

version 3
version 3

Whole song

Interactive

713 views 1 this week
no commentswrite comment
1 2 3 4 5
please rate
add to favorites
launch autoscroll
font size
0
reset
guitar tuner
Tab Pro tools
  • play this tab
  • loop segment
  • change instrument
  • show fretboard
  • metronome
×
Best way to learn
"Warlocks"
Autoscroll
slow
fast
+/-
esc
set tempo
stop
Contributor
-------------------------------------------------------------------------------
                      WARLOCKS – Red Hot Chili Peppers
-------------------------------------------------------------------------------
Tabbed By: 0GibsonLesPaul0
Email: -----

Tuning: Standard



INTRO

G|----------------------------------------------------------------------------|
D|----------------------------------------------------------------------------|
A|--5h7-5--5h7--------5h7-5---5h7---------5h7-5---5h7-------5h7-5--5h7--------|
E|-7------7-----0-0--7------7----0-0---7-------7-----0-0--7------7----3-4-5-6-|


VERSE

G|----------------------------------------------------------------------------|
D|----------------------------------------------------------------------------|
A|--5h7-5--5h7--------5h7-5---5h7---------5h7-5---5h7-------5h7-5--5h7--------|
E|-7------7-----0-0--7------7----0-0---7-------7-----0-0--7------7------------|

G|-------------------------------------------------------------------------------------------|
D|-7----7-6-5--------------------------------------------------------------------------------|
A|---5--------7----5h7-5--5h7--------5h7-5---5h7---------5h7-5---5h7-------5h7-5--5h7--------|
E|---------------7------7-----0-0--7------7----0-0---7-------7-----0-0--7------7-------------|


CHORUS

G|----------------------------------------------------------|
D|----------5-4------------5-2p0----------------------------|
A|-77777-7-7----033333-3-3-------000000-0-0-3-2--------5—-5-|
E|----------------------------------------------3—-3--------|


INTURLUDE

G|----------------------------------------------------------------------------|
D|----------------------------------------------------------------------------|
A|--5h7-5--5h7--------5h7-5---5h7---------5h7-5---5h7-------5h7-5--5h7--------|
E|-7------7-----0-0--7------7----0-0---7-------7-----0-0--7------7----3-4-5-6-|


VERSE

G|----------------------------------------------------------------------------|
D|----------------------------------------------------------------------------|
A|--5h7-5--5h7--------5h7-5---5h7---------5h7-5---5h7-------5h7-5--5h7--------|
E|-7------7-----0-0--7------7----0-0---7-------7-----0-0--7------7------------|

G|-------------------------------------------------------------------------------------------|
D|-7----5h7p5--------------------------------------------------------------------------------|
A|---5--------7----5h7-5--5h7--------5h7-5---5h7---------5h7-5---5h7-------5h7-5--5h7--------|
E|---------------7------7-----0-0--7------7----0-0---7-------7-----0-0--7------7-------------|


G|----------------------------------------------------------------------------|
D|----------------------------------------------------------------------------|
A|--5h7-5--5h7--------5h7-5---5h7---------5h7-5---5h7-------5h7-5--5h7--------|
E|-7------7-----0-0--7------7----0-0---7-------7-----0-0--7------7----3-4-5-6-|


INTURLUDE

G|----------------------------------------------------------------------------|
D|----------------------------------------------------------------------------|
A|--5h7-5--5h7--------5h7-5---5h7---------5h7-5---5h7-------5h7-5--5h7--------|
E|-7------7-----0-0--7------7----0-0---7-------7-----0-0--7------7----3-4-5-6-|


BRIDGE

G|-------------------------------------------------------------------------|
D|-------------------------------00-22-00------------00-22-33-55-33-22-00--|
A|-3-3-3-3-3-3-3-3-2-2-2-2-2-2-22---------3-3-3-3-33-----------------------|
E|-------------------------------------------------------------------------|

G|----------4-4-4-4-4-4-4—|
D|------------------------|
A|-2-2-2-2----------------|
E|------------------------|


INTURLUDE

G|----------------------------------------------------------------------------|
D|----------------------------------------------------------------------------|
A|--5h7-5--5h7--------5h7-5---5h7---------5h7-5---5h7-------5h7-5--5h7--------|
E|-7------7-----0-0--7------7----0-0---7-------7-----0-0--7------7----3-4-5-6-|


VERSE

G|----------------------------------------------------------------------------|
D|----------------------------------------------------------------------------|
A|--5h7-5--5h7--------5h7-5---5h7---------5h7-5---5h7-------5h7-5--5h7--------|
E|-7------7-----0-0--7------7----0-0---7-------7-----0-0--7------7------------|

G|-------------------------------------------------------------------------------------------|
D|-7----5h7p5--------------------------------------------------------------------------------|
A|---5--------7----5h7-5--5h7--------5h7-5---5h7---------5h7-5---5h7-------5h7-5--5h7--------|
E|---------------7------7-----0-0--7------7----0-0---7-------7-----0-0--7------7-------------|


CHORUS | 4X

G|----------------------------------------------------------|
D|----------5-4------------5-2p0----------------------------|
A|-77777-7-7----033333-3-3-------000000-0-0-3-2--------5—-5-|
E|----------------------------------------------3—-3--------|


===============================================================================
comments
We did not receive enough feedback on this tab! Please rate:
print report bad tab
1 2 3 4 5
I want to post or [tab]
guest
You may want to rate the tab now too:
select rating
Please do not post tabs as comments. Select "correction" instead!