Oops, an error
Loading. Please wait.

Warped Bass Tab

version 2
version 2

Whole song

Interactive

1,609 views 1 this week
no commentswrite comment
1 2 3 4 5
2 more votes to show rating
add to favorites
launch autoscroll
font size
0
reset
guitar tuner
Autoscroll
slow
fast
+/-
esc
set tempo
stop
Help us to improve Ultimate-Guitar.com Take our survey!
×
Author
Difficulty
advanced
----------------------------------------------------------------------------
           Warped-Red hot chili peppers
----------------------------------------------------------------------------

Tabbed By : Joel Keane (jk41)
e-mail:

Tuning: standard
once again martins version is good, but his layout is buggered and my
version is a little different

intro  x20          on the 7th time             14 time
G|-------------------]------------------------]-----------------------------|
D|-------------------]------------------------]-------------7h9-------------|
A|-77-7-777-7777777--]-7\55-55555\4444\333-5/-]-77-7-777-777----------------|
E|-------------------]------------------------]-----------------------------|

verse riff, i find you get the best sound slapping
G|---------------------------------|
D|---------------------------------|
A|----5h7---5h7---5h7---5h7-0------|
E|--0-----0-----0-----0-------5b---|
    s p   s p   s p   s p   p s

1st verse
verse riff x20
  4th time(before singing)
G|--------------------------------|
D|--------------------------------|
A|---5h7---5h7---9h10---5h7-0-----|
E|-0-----0-----0------0-------5b--|

1st chorus
G|-12--11--12---12--11--5---12--11--12---12--11--5----|
D|--0---0---0----0---0--0----0---0---0----0---0--0----|
A|----------------------------------------------------|
E|----------------------------------------------------|

2nd verse
verse riff x 18
  4th time (before singing)
G|------------------------------------|
D|------------------------------------|
A|---5h7---5h7---9h10---10h12---12h14-|
E|-0-----0-----0------0-------0-------|

2nd chorus
G|-12--11--12----12--11--12----12--11--12----12--11--12---|
D|--0---0---0-----0---0---0-----0---0---0-----0---0---0---|
A|--------------------------------------------------------|
E|--------------------------------------------------------|

post chorus/interlude  x4
G|-12--11--7------7---------12--11--5------5-------|
D|--0---0--0--0-0-0-0-0------0---0--0--0-0-0-0-0---|
A|-------------------------------------------------|
E|-------------------------------------------------|

solo break
G|--------------------------------------------------------------------------|
D|--------------------------------------------------------------------------|
A|--------------32--------------32--------------32----------5-5-32----------|
E|-5-53-35-53-5----5-53-35-53-5----5-53-35-53-5----5-53-35-5----------------|

G|--------------------------------------------------------------------------|
D|--------------------------------------------------------------------------|
A|--------------32-2-20-02-20-0-32--------------32--------------32----------|
E|-5-53-35-53-5--------------------5-53-35-53-5----5-53-35-53-5-------------|

G|--------------------------------------------------------------------------|
D|-7-75-5--------------------------7-75-5----------7-79-97-75-5-------------|
A|-------7-76-6-53-5-53-3----------------7-76-6-50--------------75----------|
E|-----------------------5-53-3-53------------------------------------------|

G|--------------------------------------------------------------------------|
D|---------------------------5--------------------------------------/5-4----|
A|-------5-53-3-53-------55h7-x-32--------------32--------------32-------5--|
E|-5-53-35---------5-53-3----------5-53-35-53-5----5-53-35-53-5-------------|

3rd verse
verse riff x 17
  4th time(before singing)
G|-------------------------|
D|-------------------------|
A|---5h7-------------------|
E|-0-----55-0-5-0-5-05-----|

3rd chorus
G|-12--11--12----12--11--5----12--11--12----12--11--12------|
D|--0---0---0-----0---0--0-----0---0---0-----0---0---0------|
A|----------------------------------------------------------|
E|----------------------------------------------------------|
then post chorus/interlude
then
G|--------------------------------------------------------------------------|
D|--------------------------------------------------------------------------|
A|-----------------------------10-9---------------------------------10-9----|
E|-12--12-10--10-12--12-10--10----------12--12-10--10-12--12-10--10---------|

G|--------------------------------------------------------------------------|
D|--------------------------------------------------------------------------|
A|-----------------------------11-10--------------------------------11-10---|
E|-12--12-10--10-12--12-10--10----------12--12-10--10-12--12-10--10---------|

G|--------------------------------------------------------------------------|
D|--------------------------------------------------------------------------|
A|-----------------------------11-10--------------------------------10-9----|
E|-12--12-10--10-12--12-10--10----------12--12-10--101212-12-10--10---------|

G|--------------------------------------------------------------------------|
D|--------------------------------------------------------------------------|
A|-----------------------------10-9----------------------------10-9---------|
E|-12--12-10--101212-12-10--10--------12121210-10-12121210--10--------------|

outro
G|--------------------------------------------------------------------------|
D|---------------9-9-9-11------------------------------------9-9-9-11-------|
A|------11----11----------11---11-9-11-11-----------11----11----------11----|
E|-9--9-----9-------------------------------9--9--9-----9-------------------|

G|------------------------13-11---------------------------------------------|
D|---------------14-14-14-------14---14-14-14-13-11-----11-11-11-14-13-11---|
A|-11-11-11-11--------------------------------------14----------------------|
E|--------------------------------------------------------------------------|

G|----------13-11-----------------------11-----------16-----16--------------|
D|-11-11-11-------14----14----13----11------------14-----14----14-----------|
A|-----------------------------------------14---------------------15p14-----|
E|----------------------------------------------0------------------------0--|

| /  slide up
| \  slide down
| h  hammer-on
| p  pull-off
| ~  vibrato
| +  harmonic
| x  Mute note
===============================================================================
Suggest correction
Give kudos to tab author, rate the tab!
1 2 3 4 5
comments
print report bad tab
guest
You may want to rate the tab now too:
select rating
Wanna post a correction for this tab? Suggest correction