Oops, an error
Loading. Please wait.

We Believe Tab

version 2
version 2

Whole song

Interactive

5,075 views 18 this week
no commentswrite comment
1 2 3 4 5
accurate
x 4
add to favorites
launch autoscroll
font size
0
reset
how to read this tab
guitar tuner
Autoscroll
slow
fast
+/-
esc
set tempo
stop
Help us to improve Ultimate-Guitar.com Take our survey!
×
Contributor
Charamara 339
We Believe
RHCP
Stadium Arcadium

Verses riff

 Guitar 1 
this is the main riff            the variation 
e|-----------------------------|------------10-----------------|
B|---12---10------12---10---12-|--12---10-------12---10---12---|
G|-9----9-------9----9----9----|-9---9----9---9----9----9------|
D|-----------------------------|-------------------------------|
A|-----------------------------|-------------------------------|
E|-----------------------------|-------------------------------|

guitar 2 lick
e|-------------------------------------------------------------|
B|--------15-17------------------------------------------------|
G|--14b16--------16br14-12-14-12-/-----------------------------|
D|-------------------------------------------------------------|
A|-------------------------------------------------------------|
E|-------------------------------------------------------------|

chorus
e|----14----12----14----12----14------|
B|-12----12----12----12----12---------|
G|------------------------------------| 
D|------------------------------------| x 8
A|------------------------------------|
E|------------------------------------|

Verse riff again

then this bridge/solo thingo 

   guitar 1 (not entirely sure, but close)
e|---------------------------------------|
B|---------------------------------------|
G|--12---12-------11---11----------------|
D|--14---14-------12---12----------------|
A|---------------------------------------|
E|---------------------------------------|
 |                                       |                       
 |  guitar 2                             |
e|---------------------------------------|
B|---------------------------------------|
G|------------------------12b-12b-12b~---|
D|---------------------------------------|
A|---------------------------------------|
E|---------------------------------------|

Guitar 1
e|------------------------------------------------------------------|
B|--12---12---------------------------------------------------------|
G|--14---14---------12----12----------------------------------------|
D|------------------14----14----------------------------------------|
A|------------------------------------------------------------------|
E|------------------------------------------------------------------|
 |                                                                  | 
 |  guitar 2                                                        |
e|------------------------------------------------------------------|
B|---------------------------15-------------------------------------|
G|---------------------14b16----14-12--14-14-14-12-14-12-14b16~-----|
D|------------------------------------------------------------------|
A|------------------------------------------------------------------|
E|------------------------------------------------------------------|

Then guitar 1 plays the verse riff while the guitar 2 plays:

e|----------------------------------------------------------------------------|
B|-------15-------------------------------------------------------------------|
G|-14b16----14b16—16br14-12-14-12-14-14-12-14-12-14-14-14b16r14-12~--12h14p12-|
D|----------------------------------------------------------------------------|
A|----------------------------------------------------------------------------|
E|----------------------------------------------------------------------------|

Continue with verse riff and then chorus again
At the end of the chorus guitar 2 plays:

e|----------------------------------------------------------|
B|--12-15-15-12-15-15-12-15-15-12-15-15-12-15-15-12-15/17---|
G|----------------------------------------------------------|
D|----------------------------------------------------------|
A|----------------------------------------------------------|
E|----------------------------------------------------------|

e|--------15~---------15----15-17—--17b19-17-15-17b19-17—15~|
B|--15-17------15-17-----17---------------------------------|
G|----------------------------------------------------------|
D|----------------------------------------------------------|
A|----------------------------------------------------------|
E|----------------------------------------------------------|

e|--17b19-19-19-19-19br17-15------------------15b17r15~--------15----15h17----|
B|---------------------------17-15-17~--15-17------------15-17----17----------|
G|----------------------------------------------------------------------------|
D|----------------------------------------------------------------------------|
A|----------------------------------------------------------------------------|
E|----------------------------------------------------------------------------|

e|-17b19-19-19-19br17--15---------15----15h17-15~---/--7~------/--------------|
B|--------------------------15h17----17---------------------------------------|
G|----------------------------------------------------------------------------|
D|----------------------------------------------------------------------------|
A|----------------------------------------------------------------------------|
E|----------------------------------------------------------------------------|

Then guitar 1 slowly fades out with verse riff

Sorry I didn’t put the effects that john used, but you should be able to figure out by yourself :)

comments
print report bad tab
I want to post or [tab]
guest
You may want to rate the tab now too:
select rating
Please do not post tabs as comments. Select "correction" instead!