Oops, an error
Loading. Please wait.

We Turn Red bass

4,712 views 21 this week
1 commentread comment
1 2 3 4 5
x 6
add to favorites
×
Save as Personal and add changes to this tab that will be seen only by you. Learn more ›
×
You can save this tab as Personal to edit and correct it or add notes. All changes will be seen only by you. Learn more »
launch autoscroll
font size
0
reset
guitar tuner
backing track
0:00
0:00
edit
Autoscroll
slow
fast
+/-
esc
set tempo
stop
Author
Difficulty
-------------------------------------------------------------------------------
Red Hot Chili Peppers - We Turn Red
-------------------------------------------------------------------------------
Tabbed by:ThatWogBoy (Paul S.) 
Tuning:Standard
New Chili Peppers!


INTRO Riff (00:11):

G|---------------------------------------|        
D|-888-------------------------888-------| 
A|-----888-----6h8-8/10-8-6h8------888---| x2  
E|---------8-8-------------------------8-|

G|----------------------------------------------|
D|----------------------------------------------|
A|----------------------------------------------|
E|-x6h888-6h888-6h888-6h888-6h888-6h888-6h8-8-8-|


VERSE Riff (00:29):

G|------------------------------|
D|------------------------------|
A|-----------------------x3-3-1-| X6
E|-3-x1-x3-1-3/4p3-x1-x3--------|


1st CHORUS Riff (01:04):

G|---7---7---7---7-------15---15---15---15-|
D|-----------------------------------------|
A|-----------------------------------------|
E|-6--66--6---66-------15--1515--15--1515--|

G|--10----10---10----10-------5---5--5---5-|
D|-----------------------------------------|
A|-----------------------------------------|
E|-10--1010--10---1010-------5--55--5--55--|

G|---7---7---7---7-------15---15---15---15-|
D|-----------------------------------------|
A|-----------------------------------------|
E|-6--66--6---66-------15--1515--15--1515--|

G|--10----10---10----10-------9---9----------|
D|-------------------------------------------|
A|-------------------------------------------|
E|-10--1010--10---1010-------8--88--88888888-|


VERSE Riff (01:28):

G|------------------------------|
D|------------------------------|
A|-----------------------x3-3-1-| X6
E|-3-x1-x3-1-3/4p3-x1-x3--------|


2nd CHORUS Riff (02:03):

G||---7---7---7---7-------15---17-15---15---15-----|
D||------------------------------------------------|
A||------------------------------------------------|
E||-6--66--6---66-------15--1515---15--1515--------|

G|--10----10---10----10-------5---5--5---5--------|
D|------------------------------------------------|
A|------------------------------------------------|
E|-10--1010--10---1010-------5--55--5--55---------|

G|---7---7---7---7-------15---17-15---15---15-----|
D|------------------------------------------------|
A|------------------------------------------------|
E|-6--66--6---66-------15--1515---15--1515--------|

G|--10----10---10----10-------9---9---------------||
D|------------------------------------------------||
A|------------------------------------------------|| X2
E|-10--1010--10---1010-------8—88--8888888--------||


OUTRO Riff (02:53):

G|---------------------------------------|        
D|-888-------------------------888-------| 
A|-----888-----6h8-8/10-8-6h8------888---| x2  
E|---------8-8-------------------------8-|

G|----------------------------------------------|
D|----------------------------------------------|
A|----------------------------------------------|
E|-x6h888-6h888-6h888-6h888-6h888-6h888-6h8-8-8-|



Thanks to diegohamilton26 for corrections.

| x   Dead note
| h   Hammer-on
| p   Pull-off
| /   Slide up
| \   Slide down
| ~   Vibrato
| s   Slap
| P   Pop

            
            
Suggest correction
Creating personal tab
Creating personal tab
You can edit any tab online and save it as your Personal.

You can edit, replace or remove any tab part or add personal notes – all changes will be seen only by you.

Personal tabs can be accessed anytime from any device, even offline.
Learn more »
comments
print report bad tab
1 comment total.
+1 reply
diegohamilton26 10 Jun 10, 2016 07:05 AM

INTRO Riff:

G|-------------------------------------------------|
D|--888--------------------888---------------------|
A|-----888---6-8-8s10-8-6-----888------------------| x2
E|--------8-8--------------------8-----------------|

G|---------------------------------------------|
D|---------------------------------------------|
A|---------------------------------------------|
E|-6h888-6h888-6h888-6h888-6h888-6h888-6h8-88--|

VERSE Riff:

G|----------------------------------|
D|----------------------------------|
A|-----------------------x3-3-1-----| X6
E|-3-x1-x3-1-3s4-3-x1-x3------------|

CHORUS Riff:

G||---7---7---7---7-------15---15---15---15--------|
D||------------------------------------------------|
A||------------------------------------------------|
E||-6--66--6---66-------15--1515--15--1515---------|

G||--10----10---10----10-------5---5--5---5--------|
D||------------------------------------------------|
A||------------------------------------------------|
E||-10--1010--10---1010-------5--55--5--55---------|

G||---7---7---7---7-------15---15---15---15--------|
D||------------------------------------------------|
A||------------------------------------------------|
E||-6--66--6---66-------15--1515--15--1515---------|

G||--10----10---10----10-------9---9---------------|
D||------------------------------------------------|
A||------------------------------------------------|
E||-10--1010--10---1010-------8--88--88888888------|

CHORUS Riff (END VARIATION):

G||---7---7---7---7-------15---17-15---15---15-----|
D||------------------------------------------------|
A||------------------------------------------------|
E||-6--66--6---66-------15--1515---15--1515--------|

G||--10----10---10----10-------5---5--5---5--------|
D||------------------------------------------------|
A||------------------------------------------------|
E||-10--1010--10---1010-------5--55--5--55---------|

G||---7---7---7---7-------15---17-15---15---15-----|
D||------------------------------------------------|
A||------------------------------------------------|
E||-6--66--6---66-------15--1515---15--1515--------|

G||--10----10---10----10-------9---9---------------|
D||------------------------------------------------|
A||------------------------------------------------|
E||-10--1010--10---1010-------8—88--8888888--------|

In the chorus riffs, Flea play with the rythm sometimes.

Intro (0:11)
Verse (0:29)
Chorus(1:04)
Verse (1:28)
Chorus(2:03) x2 (in the second time play the end variation)
Intro (2:56)

guest
You may want to rate the tab now too:
select rating
Wanna post a correction for this tab? Suggest correction