Oops, an error
Loading. Please wait.

Wet Sand Tab

version 1
version 1

Intro

Whole song

37,855 views 9 this week
9 commentsread comments
1 2 3 4 5
accurate
x 26
add to favorites
launch autoscroll
font size
0
reset
how to read this tab
guitar tuner
Autoscroll
slow
fast
+/-
esc
set tempo
stop
Help us to improve Ultimate-Guitar.com Take our survey!
×
Difficulty
novice
Wet Sand
Red Hot Chili Peppers
STADIUM ARCADIUM

tabbed by tVaugnor (this is my first tab, so I don't know how accurate it is)




Listen to the song to hear the strumming pattern of the chords
         G      D           Em            Bm

E--------3------2-----------0-------------2--------------------------------\
B--------3------3-----------0-------------3--------------------------------\
G--------0------2-----------0-------------4--------------------------------\
D--------0------0--------2--2-------------4--------------------------------\
A--------2-----------0h2----2-----b5--2---2------2-5-2-0-------------------\
E--------3------------------0-------------2--------------3-----------------\


         G                  D                 Em            Bm
E--------3------------------2-----------------0-------------2-----------------\
B--------3------------------3-----------------0-------------3-----------------\
G--------0------------------2-----------------0-------------4-----------------\
D--------0-----0h2p0--------0-----0h20--------2-------------4-----------------\
A--------2------------2p0---------------2p0---2-----b5--2---2--------0-2-4----\
E----3---3------------------------------------0-------------2------3----------\


         G                  D                  Em                 Bm
E--------3------------------2------------------0------------------2---------\
B--------3------------------3------------------0------------------3---------\
G--------0------------------2------------------0------------------4---------\
D--------0------------------0-----0-2-4-5--0---2------------------4---------\
A--------2-------0-2-5--0----------------------2-----5s2-2s0--2---2---------\
E----3---3-----3-------------------------------0------------------2---------\
Suggest correction
What's this?
You can suggest a correction to this tab. Community and Mods will review your correction and vote to approve or reject it.
comments
print report bad tab
9 comments total. Showing first comments.
0 reply
Txhxc 112 wrote on May 29 2006, 04:33 pm

E--------3------------------2------------------0------------------2---------\
B--------3------------------3------------------0------------------3---------\
G--------0------------------2------------------0------------------4---------\
D--------0------------------0-----0-2-4-5------2------------------4---------\
A--------2-------0-2-5--0-----------------2----2-----5s2-2s0--2---2---------\
E----3---3-----3-------------------------------0------------------2---------\
Thats the only wrong note :P Awesome tab. Finish it!@

0 reply
Joker282 24 wrote on June 1 2006, 11:25 pm

great tab nicely done

0 reply
mistaman 471 wrote on June 2 2006, 09:05 pm

very nice.

guest
You may want to rate the tab now too:
select rating
Please do not post tabs as comments. Select "correction" instead!