Oops, an error
Loading. Please wait.

Whatever We Want tab

version 1
version 1

Whole song

Interactive

5,577 views 9 this week
2 commentsread comments
1 2 3 4 5
x 5
add to favorites
×
Save as Personal and add changes to this tab that will be seen only by you. Learn more ›
×
You can save this tab as Personal to edit and correct it or add notes. All changes will be seen only by you. Learn more »
launch autoscroll
font size
0
reset
how to read this tab
guitar tuner
edit
Autoscroll
slow
fast
+/-
esc
set tempo
stop
Song: Whatever We Want
Artist: Red Hot Chili Peppers
Album: Stadium Arcadium B-sides
Tabbed by Wajon

Tuning: Standard


[Intro]
e|-----------------------------------------------------------|R X 4-|
B|-----------------------------------------------------------|E
G|-----------------------------------------------------------|P
D|---6--6---6-x----/9-9-9-9---11-11-11--x-6-6-6-6------------|E
A|---6--6---6-x----/9-9-9-9---11-11-11--x-6-6-6-6------------|A
E|---4--4---4-x----/7-7-7-7---9--9--9---x-4-4-4-4------------|T

*On the third repeat of the intro this part comes in simultaneously*
e|-11----------11-------------13--|(13)---------11----------------|R X 2-|
B|-----13-------------13----------|-----14-------------13---------|E
G|---------13-------------13------|---------13-------------13-----|P
D|--------------------------------|-------------------------------|E
A|--------------------------------|-------------------------------|A
E|--------------------------------|-------------------------------|T

                                                      ____________
[Verse]                                              /     \      |
e|------------------------------------------|R     |-------|    ---|
B|------------------------------------------|E     |---------------|  Play after second
G|--8---10--------------8---10--------------|P X 5 |---------------|    repeat.
D|--8---10--x-x-x-x-x---8---10--x-x-x-x-x---|E     |--10\----------|
A|--6---8---x-x-x-x-x---6---8---x-x-x-x-x---|A     |---------------|
E|----------x-x-x-x-x-----------x-x-x-x-x---|T     |---------------|


[Pre-Chorus]
e|-----------------------------------------------------|
B|-----------------------------------------------------|
G|---13---8----------10---13--8------10--x-x-x-x-x-----|
D|---13---8---13-x---10---13--8--13--10--x-x-x-x-x-----|
A|---11---6---13-x---8----11--6--13--8---x-x-x-x-x-----|
E|------------11-x---------------11--------------------|


[Chorus]
e|---------------------------------------------| X 2 then
B|---------------------------------------------|progress to
G|---------------------------------------------|part of chorus
D|---6--6--x----/9-9-9-9---4-4------x-6-6-6-6--|below..
A|---6--6--x----/9-9-9-9---4-4------x-6-6-6-6--|
E|---4--4--x----/7-7-7-7---2-2------x-4-4-4-4--|

e|-------------------------------------------------| X 4
B|-------------------------------------------------|
G|-------------------------------------------------|
D|---6--6--x----/9-9-9-9---11-11-11--x-6-6-6-6-----|
A|---6--6--x----/9-9-9-9---11-11-11--x-6-6-6-6-----|
E|---4--4--x----/7-7-7-7---9--9--9---x-4-4-4-4-----|

*On the third repeat of the second part of the chorus this comes in simultaneously*
e|-11----------11-------------13--|(13)---------11----------------|R X 2-|
B|-----13-------------13----------|-----14-------------13---------|E
G|---------13-------------13------|---------13-------------13-----|P
D|--------------------------------|-------------------------------|E
A|--------------------------------|-------------------------------|A
E|--------------------------------|-------------------------------|T


[Solo]
e|--------------------------------------------------------|
B|---------------------------------6-----9----------------|
G|---8----------------------------------------------------|
D|---8p6-8b(10)=======(8)r--6---------8-----8---6--8b10r8-|
A|----------------------------8---------------------------|
E|--------------------------------------------------------|

e|--------------------------------------------------------7------------|
B|-------6--------------------------------6--6-----9-------------------|
G|-------------------------------------8-----------------------0-------|
D|-6--8--------6--8b10r8--8-----6--8------------8-----8--------8br-----|
A|----------8-------------6-----x--------------------------------------|
E|---------------------------------------------------------------------|


Song progression:
Intro
Verse
Pre-chorus
Verse
Pre-chorus
Chorus
Verse
Pre-chorus
Chorus
Solo
Pre-Chorus
Chorus


Tabbed by Wajon

            
            
Suggest correction
Creating personal tab
Creating personal tab
You can edit any tab online and save it as your Personal.

You can edit, replace or remove any tab part or add personal notes – all changes will be seen only by you.

Personal tabs can be accessed anytime from any device, even offline.
Learn more »
comments
print report bad tab
2 comments total.
0 reply
WhiteStripesIII 273 Oct 19, 2007 01:16 AM

Awesome

-1 reply
reggev.livney 137 Jul 29, 2013 01:31 PM

"On the third repeat of the intro this part comes in simultaneously"
The correct tab is
e:----------------------------------------------------|R X 2-|
B:---4---------4----------6------------4---------------------|E
G:-------5---------5----------6------------5-----------------|P
D:----------6----------6----------6------------6-------------|E
A:-----------------------------------------------------------|A
E:-----------------------------------------------------------|T

guest
You may want to rate the tab now too:
select rating
Wanna post a correction for this tab? Suggest correction