Oops, an error
Loading. Please wait.

Whatever We Want Tab

version 2
version 2

Whole song

Interactive

3,128 views 6 this week
1 commentread comment
1 2 3 4 5
excellent!
x 3
add to favorites
launch autoscroll
font size
0
reset
how to read this tab
guitar tuner
Autoscroll
slow
fast
+/-
esc
set tempo
stop
Help us to improve Ultimate-Guitar.com Take our survey!
×
Author
Song: Whatever We Want
Artist: Red Hot Chili Peppers
Album: Stadium Arcadium B-sides
Tabbed by Oscillococcinum

This is my first TAB and it's not even complete, but i think it's more accurate than the 
version on this site.
I haven't had time to figure out the solo yet, so you have to use the other version for that.
Anyway it isn't perfect but it's decent i think.
Enjoy.

Tuning: Standard

[Intro]

e|----------------------------------------------|
B|----------------------------------------------|
G|----------------------------------------------|
D|--6-6-6-6-6/9-9-9-9-9-9-11-11-11-x-4/6-6-6-6--|
A|--6-6-6-6-6/9-9-9-9-9-9-11-11-11-x-4/6-6-6-6--|
E|--4-4-4-4-4/7-7-7-7-7-7-9--9--9--x-2/4-4-4-4--|


e|--x-x---------------------------------------------|
B|--x-x---------------------------------------------|
G|--x-x---------------------------------------------|  x3
D|--x-x-6-6-6-6-6/9-9-9-9-9-9-11-11-11-x-4/6-6-6-6--|
A|--x-x-6-6-6-6-6/9-9-9-9-9-9-11-11-11-x-4/6-6-6-6--|
E|--x-x-4-4-4-4-4/7-7-7-7-7-7-9--9--9--x-2/4-4-4-4--|


On the third time theres a 2nd guitar part:

[ use chorus effect ]

e|------------------------------|
B|--16-----16----18-----16------|
G|----17-----17----18-----17----|  x2
D|------18-----------18-----18--|
A|------------------------------|
E|------------------------------|


             PM-----------|

e|------------------------|
B|------------------------|
G|--8/10--10-10-10-10-10--|  x2
D|--8/10--10-10-10-10-10--|
A|--6/8---8--8--8--8--8---|
E|------------------------|

           \-------------|

e|-----------------------|
B|-----------------------|
G|--8/10-----------------|
D|--8/10--9\-------------|
A|--6/8------------------|
E|-----------------------|

[Verse]

         PM-------------|

e|------------------------|
B|------------------------|
G|--8/10--10-10-10-10-10--|  x7
D|--8/10--10-10-10-10-10--|
A|--6/8---8--8--8--8--8---|
E|------------------------|

This time there is no palm muting and you should make the second chord louder each time 
hit

e|------------------------|
B|------------------------|
G|--8/10--10-10-10-10-10--|
D|--8/10--10-10-10-10-10--|
A|--6/8---8--8--8--8--8---|
E|------------------------|

[ Pre-chorus]

e|-----------------------------------|
B|-----------------------------------|
G|--13--13-13---8-x-8/10--8/10-8/10--|
D|--13--13-13---8-x-8/10--8/10-8/10--|
A|--11--11-11---6-x-6/8---6/8--6/8---|
E|----------------x-6/8--------------|


                           PM----------|

e|----------------------------------------|
B|----------------------------------------|
G|--13--13-13---8-x-8/10--10-10-10-10-10--|
D|--13--13-13---8-x-8/10--10-10-10-10-10--|
A|--11--11-11---6-x-6/8---8--8--8--8--8---|
E|----------------------------------------|


[Verse]

         PM------------|

e|------------------------|
B|------------------------|
G|--8/10--10-10-10-10-10--|  x2
D|--8/10--10-10-10-10-10--|
A|--6/8---8--8--8--8--8---|
E|------------------------|


e|---------------------|
B|-------------9-------|
G|--8/10---------------|
D|--8/10--8b9---8b9r8--|
A|--6/8----------------|
E|---------------------|


         PM------------|

e|------------------------|
B|------------------------|
G|--8/10--10-10-10-10-10--|  x7
D|--8/10--10-10-10-10-10--|
A|--6/8---8--8--8--8--8---|
E|------------------------|


This time there is no palm muting and you should make the second chord louder each time 
hit

e|------------------------|
B|------------------------|
G|--8/10--10-10-10-10-10--|
D|--8/10--10-10-10-10-10--|
A|--6/8---8--8--8--8--8---|
E|------------------------|


[Pre-chorus]


e|-----------------------------------|
B|-----------------------------------|
G|--13--13-13---8-x-8/10--8/10-8/10--|  x3
D|--13--13-13---8-x-8/10--8/10-8/10--|
A|--11--11-11---6-x-6/8---6/8--6/8---|
E|----------------x-6/8--------------|


e|-----------------------------------------------------------|
B|-----------------------------------------------------------|
G|--13--13-13---8-8-8/6-6-6-66-66-6-6-66-6/8-8-8-88-88-8-8\--|
D|--13--13-13---8-8-8/6-6-6-66-66-6-6-66-6/8-8-6-88-88-8-8\--|
A|--11--11-11---6-6-6/4-4-4-44-44-4-4-44-4/6-6-6-66-66-6-6\--|
E|-----------------------------------------------------------|


[Chorus]

e|----------------------------------------------|
B|----------------------------------------------|
G|----------------------------------------------|  x6
D|--6-6-6-6-6/9-9-9-9-9-9-11-11-11-x-4/6-6-6-6--|
A|--6-6-6-6-6/9-9-9-9-9-9-11-11-11-x-4/6-6-6-6--|
E|--4-4-4-4-4/7-7-7-7-7-7-9--9--9--x-2/4-4-4-4--|

On the FIFTH  time theres a 2nd guitar part:

[ on this guitar part Chorus is used ]

e|------------------------------|
B|--16-----16----18-----16------|
G|----17-----17----18-----17----|  x2
D|------18-----------18-----18--|
A|------------------------------|
E|------------------------------|


e|----------------------------------------------|
B|----------------------------------------------|
G|----------------------------------------------|
D|--6-6-6-6-6/9-9-9-9-9-9-11-11-11-x-4/6-6-6-6--|
A|--6-6-6-6-6/9-9-9-9-9-9-11-11-11-x-4/6-6-6-6--|
E|--4-4-4-4-4/7-7-7-7-7-7-9--9--9--x-2/4-4-4-4--|

e|-------------------------------------------------|
B|-------------------------------------------------|
G|-------------------------------------------------|
D|--x-4/6-66-6--x-4/6-66-6--x-4/6-66-6--x-4/6-66~--|
A|--x-4/6-66-6--x-4/6-66-6--x-4/6-66-6--x-4/6-66~--|
E|--x-2/4-44-4--x-2/4-44-4--x-2/4-44-4--x-2/4-44~--|


[Solo]


[Pre-chorus]

e|-----------------------------------|
B|-----------------------------------|
G|--13--13-13---8-x-8/10--8/10-8/10--|  x3
D|--13--13-13---8-x-8/10--8/10-8/10--|
A|--11--11-11---6-x-6/8---6/8--6/8---|
E|----------------x-6/8--------------|


e|-----------------------------------------------------------|
B|-----------------------------------------------------------|
G|--13--13-13---8-8-8/6-6-6-66-66-6-6-66-6/8-8-8-88-88-8-8\--|
D|--13--13-13---8-8-8/6-6-6-66-66-6-6-66-6/8-8-6-88-88-8-8\--|
A|--11--11-11---6-6-6/4-4-4-44-44-4-4-44-4/6-6-6-66-66-6-6\--|
E|-----------------------------------------------------------|


[Chorus]

e|----------------------------------------------|
B|----------------------------------------------|
G|----------------------------------------------|  x6
D|--6-6-6-6-6/9-9-9-9-9-9-11-11-11-x-4/6-6-6-6--|
A|--6-6-6-6-6/9-9-9-9-9-9-11-11-11-x-4/6-6-6-6--|
E|--4-4-4-4-4/7-7-7-7-7-7-9--9--9--x-2/4-4-4-4--|

On the FIFTH  time there's a 2nd guitar part:

[ use chorus effect ]

e|------------------------------|
B|--16-----16----18-----16------|
G|----17-----17----18-----17----|  x2
D|------18-----------18-----18--|
A|------------------------------|
E|------------------------------|
Suggest correction new What's this?
You can suggest a correction to this tab. Community and Mods will review your correction and vote to approve or reject it.
comments
We did not receive enough feedback on this tab! Please rate:
print report bad tab
1 2 3 4 5
1 comment total.
0 reply
boudieboom 123 wrote on July 8 2010, 01:42 pm

No solo here, tried to tab it already?

guest
You may want to rate the tab now too:
select rating
Please do not post tabs as comments. Select "correction" instead!