Oops, an error
Loading. Please wait.

I Am A Rock bass

82 views 6 this week
no commentswrite comment
1 2 3 4 5
3 more votes to show rating
add to favorites
×
Save as Personal and add changes to this tab that will be seen only by you. Learn more ›
×
You can save this tab as Personal to edit and correct it or add notes. All changes will be seen only by you. Learn more »
launch autoscroll
font size
0
reset
guitar tuner
edit
Autoscroll
slow
fast
+/-
esc
set tempo
stop
[Intro]
G|--------------|--------------|--------------------|-------------------| 
D|--------------|--------------|--------------------|-------------------|
A|--------------|-8--8-8--8-8-8|--------------------|-10-10-10-8-8-8-7--|
E|-8--8-8--8-8-8|--------------|-10--10-10--10-10-10|------------------8|

G|--------------|--------------|--------------------|-------------------| 
D|--------------|--------------|--------------------|-------------------|
A|--------------|-8--8-8--8-8-8|--------------------|-10-10-10-8-8-8-7--|
E|-8--8-8--8-8-8|--------------|-10--10-10--10-10-10|------------------8|


[Verse 1]
G|--------------|--------------|--------------------|-------------------| 
D|--------------|--------------|--------------------|-------------------|
A|--------------|-8--8-8--8-8-8|--------------------|-10-10-10-8-8-8-7--|
E|-8--8-8--8-8-8|--------------|-10--10-10--10-10-10|------------------8|

G|--------------|--------------|--------------------|-------------------| 
D|--------------|--------------|--------------------|-------------------|
A|--------------|-8--8-8--8-8-8|--------------------|-10-10-10-8-8-8-7--|
E|-8--8-8--8-8-8|--------------|-10--10-10--10-10-10|------------------8|

[Pre-Chorus]
G|-------------------|-------------------|--------------|--------------|
D|-------------------|-------------------|--------------|--------------|
A|-------------------|-------------------|--------------|--------------|
E|-10--10-10--10-10-/|-12--12-12--12-12-\|-6--6-6--6-6-/|-8--8-8--8-8-/|

G|-------------------|------------------|------------------------|-----------------------|
D|-------------------|------------------|------------------------|-----------------------|
A|-------------------|------------------|------------------------|-----------------------|
E|-10--10-10--10-10-/|-12--12-12--12-12-|-11-11-11-11-11-11-11-11|-10-10-10-10-10-10-10-8|

[Chorus]
G|-------------|------------------|-------------|--------------|
D|-------------|------------------|-------------|--------------|
A|-------------|------------------|-7--7-7--7---|--------------|
E|-8--8-8--8-8-|-10--10-10--10-10-|-----------8-|-1--1-1--1-1-/|

G|-------------|--------------|-------------|---------------|---------------|
D|-------------|--------------|-------------|------------10-|------------10-|
A|-------------|-5--5-5--5-5-/|-7--7-7--7-7-|-8-8-8-8--8----|-8-8-8-8--8----|
E|-3--3-3--3-3-|--------------|-------------|---------------|---------------|

[Verse 2]
G|--------------|--------------|--------------------|-------------------| 
D|--------------|--------------|--------------------|-------------------|
A|--------------|-8--8-8--8-8-8|--------------------|-10-10-10-8-8-8-7--|
E|-8--8-8--8-8-8|--------------|-10--10-10--10-10-10|------------------8|

G|--------------|--------------|--------------------|-------------------| 
D|--------------|--------------|--------------------|-------------------|
A|--------------|-8--8-8--8-8-8|--------------------|-10-10-10-8-8-8-7--|
E|-8--8-8--8-8-8|--------------|-10--10-10--10-10-10|------------------8|

[Pre-Chorus]
G|-------------------|------------------|--------------|------------------------|
D|-------------------|------------------|--------------|------------------------|
A|-------------------|------------------|-13---13---13-|-10-10-10-10-10-10-10-10|
E|-10--10-10--10-10-/|-12--12-12--12-12-|--------------|------------------------|

[Chorus]
G|-------------|------------------|-------------|--------------|
D|-------------|------------------|-------------|--------------|
A|-------------|------------------|-7--7-7--7---|--------------|
E|-8--8-8--8-8-|-10--10-10--10-10-|-----------8-|-1--1-1--1-1-/|

G|-------------|--------------|-------------|-------------|-------------|
D|-------------|--------------|-------------|-------------|-------------|
A|-------------|-5--5-5--5-5-/|-7--7-7--7-7-|-8--8-8--8-8-|-------------|
E|-3--3-3--3-3-|--------------|-------------|-------------|-3--3-3--3-3-|

G|-------------|-------------|
D|-------------|-------------|
A|-1--1-1--1-1-|-------------|
E|-------------|-1--1-1--1-1-|

[Verse 3]
G|--------------|--------------|--------------------|-------------------| 
D|--------------|--------------|--------------------|-------------------|
A|--------------|-8--8-8--8-8-8|--------------------|-10-10-10-8-8-8-7--|
E|-8--8-8--8-8-8|--------------|-10--10-10--10-10-10|------------------8|

G|--------------|--------------|--------------------|-------------------| 
D|--------------|--------------|--------------------|-------------------|
A|--------------|-8--8-8--8-8-8|--------------------|-10-10-10-8-8-8-7--|
E|-8--8-8--8-8-8|--------------|-10--10-10--10-10-10|------------------8|

[Pre-Chorus]
G|-------------------|------------------|---------------|------------------------|
D|-------------------|------------------|---------------|------------------------|
A|-------------------|------------------|-13---13---13-\|-10-10-10-10-10-10-10-10|
E|-10--10-10--10-10-/|-12--12-12--12-12-|---------------|------------------------|

[Chorus]
G|-------------|-------------------|------------------|--------------|
D|-------------|-------------------|------------------|--------------|
A|-------------|-------------------|------------------|--------------|
E|-8--8-8--8-8-|-10--10-10--10-10-/|-12--12-12--12\-8-|-1--1-1--1-1-/|

G|-------------|--------------|-------------|--------------|---------------|
D|-------------|--------------|-------------|-----------10-|------------10-|
A|-------------|-5--5-5--5-5-/|-7--7-7--7-7-|-8--8-8--8----|-8-8-8-8--8----|
E|-3--3-3--3-3-|--------------|-------------|--------------|---------------|

[Verse 4]
G|--------------|--------------|--------------------|-------------------| 
D|--------------|--------------|--------------------|-------------------|
A|--------------|-8--8-8--8-8-8|--------------------|-10-10-10-8-8-8-7--|
E|-8--8-8--8-8-8|--------------|-10--10-10--10-10-10|------------------8|

G|--------------|--------------|--------------------|-------------------| 
D|--------------|--------------|--------------------|-------------------|
A|--------------|-8--8-8--8-8-8|--------------------|-10-10-10-8-8-8-7--|
E|-8--8-8--8-8-8|--------------|-10--10-10--10-10-10|------------------8|

[Pre-Chorus]
G|-------------------|------------------|------------|----------------|
D|-------------------|------------------|------------|----------------|
A|-------------------|------------------|------------|----------------|
E|-10--10-10--10-10-/|-12--12-12--12-12-|-6---6---6-\|-3-3-3-3-3-3-3-3|

[Chorus]
G|--------------|-------------------|------------------|--------------|
D|--------------|-------------------|------------------|--------------|
A|--------------|-------------------|------------------|--------------|
E|-8--8-8--8-8-/|-10--10-10--10-10-/|-12--12-12--12\-8-|-1--1-1--1-1-/|

G|-------------|--------------|-------------|--------------|---------------|
D|-------------|--------------|-------------|-----------10-|------------10-|
A|-------------|-5--5-5--5-5-/|-7--7-7--7-7-|-8--8-8--8----|-8-8-8-8--8----|
E|-3--3-3--3-3-|--------------|-------------|--------------|---------------|

G|--------------|-------------------|------------------|--------------|
D|--------------|-------------------|------------------|--------------|
A|--------------|-------------------|------------------|--------------|
E|-8--8-8--8-8-/|-10--10-10--10-10-/|-12--12-12--12\-8-|-1--1-1--1-1-/|

G|-------------|--------------|-------------|-------------|-------------|
D|-------------|--------------|-------------|-------------|-------------|
A|-------------|-5--5-5--5-5-/|-7--7-7--7-7-|-8--8-8--8-8-|-------------|
E|-3--3-3--3-3-|--------------|-------------|-------------|-3--3-3--3-3-|

G|-------------|---------------------|
D|-------------|---------3-----------|
A|-1--1-1--1-1-|-----3---------------|
E|-------------|-1-------------------|

[Outro]
G|-----------------------5-----|-----------------------5-----| 
D|-7------5----3---------------|-7------5----3---------------|
A|----------------3------------|----------------3------------|
E|-----------------------------|-----------------------------|

G|-----------------------5-----|-----------------------5-----| 
D|-7------5----3---------------|-7------5----3---------------|
A|----------------3------------|----------------3------------|
E|-----------------------------|-----------------------------|

G|-----------------------5-----|-----------------| 
D|-7------5----3---------------|-7------5----3---|
A|----------------3------------|----------------3|
E|-----------------------------|-----------------|


*************************************

| / Slide up
| \ Slide down

*************************************

            
            
Suggest correction
Creating personal tab
Creating personal tab
You can edit any tab online and save it as your Personal.

You can edit, replace or remove any tab part or add personal notes – all changes will be seen only by you.

Personal tabs can be accessed anytime from any device, even offline.
Learn more »
Give kudos to tab author, rate the tab!
1 2 3 4 5
comments
print report bad tab
guest
You may want to rate the tab now too:
select rating
Wanna post a correction for this tab? Suggest correction