Oops, an error
Loading. Please wait.

San Geronimo tab

version 1
version 1

Whole song

Interactive

2,097 views 1 this week
1 commentread comment
1 2 3 4 5
1 last vote to show rating
add to favorites
×
Save as Personal and add changes to this tab that will be seen only by you. Learn more ›
×
You can save this tab as Personal to edit and correct it or add notes. All changes will be seen only by you. Learn more »
launch autoscroll
font size
0
reset
how to read this tab
guitar tuner
edit
Autoscroll
slow
fast
+/-
esc
set tempo
stop
Author
Artist: Red House Painters
Song: San Geronimo
Album: Ocean Beach
Tabbed by: Don Tago
email: recebedou@yahoo.com

Standard Tuning


Verse/Intro Riff: (tabbed out with high note frills included)

   Bm5      A5    Bm5        Bm5    D5      G5   Bm5
e|-----------------------------------------------------------|
B|-----------------------------------------------------------|
G|-4-4-4-4---------4----7-----4-4-4/7-7-7---------4----7-----|
D|-4-4-4-4--7-7-7--4------7---4-4-4/7-7-7--5-5-5--4-------7--|
A|-2-2-2-2--7-7-7--2----------2-2-2/5-5-5--5-5-5--2----------|
E|-2-2-2-2--5-5-5--2--2-------2-2-2/5-5-5--3-3-3--2--2-------|


Verse 1:
Bm5           A5       Bm5
somewhere up fifteen miles
Bm5  C5           D5       Bm5
sifting through crackling vinyl
Bm5           A5     Bm5
lost memories of my youth
Bm5 C5      D5   Bm5
are coming into view

Verse 2:
between lost hills divide
quietly we sleep inside
lost summers of my youth
i spent them all with you

Break riff:
e|--0-2---0-2---0-2---0-2--2/5-5-7---7-7--5-5---5---5-5---3-3--2-----|
B|--0-0---0-0---0-0---0-0------------7-7--5-5---5---5-5---3-3----3---|
G|--4-4---4-4---4-4---4-4------------7-7--7-7---7---7-7--------------|X2
D|--4-4---4-4---4-4---4-4-----------------7-7---7---7-7--------------|

Verse 3:
take ways by withered creeks
lizards sunning in the streets
small kitten stretches through
green empty yards you knew

Break Riff: then,

Chorus:
D   G       D     A     D  G  D A
weekend in san geronimo
D     G        D      A      D   G  D A
love how the starlit skies show
D   G       D    A      D  G D A
weekend in san geronimo
D    G   D    A        D  G D A   then: Bm5 A5 Db5 D5
sentiment within me glows

Verse 4:
somewhere up fifteen miles
barefoot on kitchen tile
where nights are warm and true
i'll spend them all with you

Chorus:
weekend in san geronimo
love how the starlit skies show
weekend in san geronimo
sentiment within me glows



            
            
Suggest correction
Creating personal tab
Creating personal tab
You can edit any tab online and save it as your Personal.

You can edit, replace or remove any tab part or add personal notes – all changes will be seen only by you.

Personal tabs can be accessed anytime from any device, even offline.
Learn more »
Give kudos to tab author, rate the tab!
1 2 3 4 5
comments
print report bad tab
1 comment total.
0 reply
aibotk 10 May 12, 2017 02:43 AM

f'in perfect dude!

guest
You may want to rate the tab now too:
select rating
Wanna post a correction for this tab? Suggest correction