Oops, an error
Loading. Please wait.

Im Not Pretending Tab

version 1
version 1

Whole song

577 views 1 this week
no commentswrite comment
1 2 3 4 5
please rate
add to favorites
launch autoscroll
font size
0
reset
how to read this tab
guitar tuner
Autoscroll
slow
fast
+/-
esc
set tempo
stop
Help us to improve Ultimate-Guitar.com Take our survey!
×
Title      :	I'm Not Pretending
Artist     :    Red Lipstick Letter
Album      :    Here's Your Photograph

For any Comments and Suggestions:

Text Me:     09082360710/09156169501
Email Me:    jhenson_21@rocketmail.com
Friendster:  boybassista@yahoo.com

Tuning: Drop D

Intro:

e---------------------------------------------------------|
b---------0---------------0----------0-------------0------|
g---0---0---0---0---0---0--0-----0--0--0--0---0--0---0----|
D-5---5-------5----5--5-----5---2--2-----2---2--2------2--|
A---------------------------------------------------------|
D---------------------------------------------------------|

e---------------------------------------------------------------|
b---------0-------------------0--------------0--------------0---|
g-------0---0----------------0--0-----------0--0-----------0-0--|
D---0--0-------0----0---0---0----0-----0---0----0---0--0--0---0-|
A-2---2----------2-2--2---2-------2---3--3-------3-3--3--3-----3|
D---------------------------------------------------------------|

For Guitar 2:

Fill-In
e----------------------------------|---------------------------------------|
b-----10*----10*----12*---12*--10*-|---------------------------------------|
g----------------------------------|-xxx-000-5555-----------/1212121212----|
D----------------------------------|-xxx-000-5555-----------/xxxxxxxxx-----|
A--10-----10-----10----10----10----|-xxx-000-5555----xxxxx--/1010101010----|
D----------------------------------|-xxx-000-5555--------------------------|

Then

Guitar 1:		          Guitar 2:
e-------------------------------|----------------|
b-------------------------------|----------------|
g----------1212121212-\-1111111-|----------------|
D-5555xx---xxxxxxxxxx-\-xxxxxx--|---555555--7777~|
A-5555xx---1010101010-\-999999--|---555555--7777~|
D-5555xx------------------------|---555555--7777~|

Then

Guitar 1:				Guitar 2:
e---------------------------------|------------------------------|
b-------3-----3------3------3/8~--|------------------------------|
g---------------------------------|-----------------------55555--|
D--4h5----4h5----4h5----4h5-------|--55555--22222--00000--55555--|
A---------------------------------|--55555--22222--00000--33333--|
D---------------------------------|--55555--22222--00000---------|

Verse:

 G                  Em
Are you alright, your hands are cold, 
 D                           C             
i'm not making use of time i stole. 
  G                   Em
It's not like you, to fall asleep, 
      D                       C                         
when i'm not here, you're suffering you're suffering.


Chorus:
 G
Last chance to get this right, 
 Em
in hopes just for tonight, 
 D                  C
to wait this out so patiently(X2)

e------------------|-----------------------|
b------------------|------3-----3-----3/8~-|
g-12121212\1111111-|-----------------------|
D-xxxxxxxx\xxxxxxx-|--4h5---4h5---4h5------|
A-10101010\9999999-|-----------------------|
D------------------|-----------------------|

Verse:

G                   Em
I'm not alright, my mouth is dry, 
 D                       C
you're not making sense of words i write. 
G                      Em         D                    
It's not like me to lay awake, when you're right here, 
    C
i'm suffering i'm suffering.

Chorus:

 G
Last chance to get this right, 
 Em
in hopes just for tonight, 
 D                  C
to wait this out so patiently(X2)

Intro:

e---------------------------------------------------------|
b---------0---------------0----------0-------------0------|
g---0---0---0---0---0---0--0-----0--0--0--0---0--0---0----|
D-5---5-------5----5--5-----5---2--2-----2---2--2------2--|
A---------------------------------------------------------|
D---------------------------------------------------------|

e---------------------------------------------------------------|
b---------0-------------------0--------------0--------------0---|
g-------0---0----------------0--0-----------0--0-----------0-0--|
D---0--0-------0----0---0---0----0-----0---0----0---0--0--0---0-|
A-2---2----------2-2--2---2-------2---3--3-------3-3--3--3-----3|
D---------------------------------------------------------------|


For Guitar 2:

Fill-In
e----------------------------------|---------------------------------------|
b-----10*----10*----12*---12*--10*-|---------------------------------------|
g----------------------------------|-xxx-000-5555-----------/1212121212----|
D----------------------------------|-xxx-000-5555-----------/xxxxxxxxx-----|
A--10-----10-----10----10----10----|-xxx-000-5555----xxxxx--/1010101010----|
D----------------------------------|-xxx-000-5555--------------------------|

G-Em-D-C
To wait this out so patiently, 
i can't forget you, i will forget you.(X5)

G-Em-D-C
Last chance to get this right(to wait this out) 
in hopes just for tonight(so patiently) to wait this out so patiently
(i can't forget you, i will forget you)(X2)

Guitar 1:				Guitar 2:
e---------------------------------|------------------------------|
b-------3-----3------3------3/8~--|------------------------------|
g---------------------------------|-----------------------55555--|
D--4h5----4h5----4h5----4h5-------|--55555--22222--00000--55555--|
A---------------------------------|--55555--22222--00000--33333--|
D---------------------------------|--55555--22222--00000---------|

Fade:

*If you want to Learn How to Read Tabs Just Text me: 09082360710/09156169501


'=================='
/   RoCk En RoLL   \
'------------------'

I Love You Jen..

Suggest correction
Give kudos to tab author, rate the tab!
1 2 3 4 5
comments
print report bad tab
guest
You may want to rate the tab now too:
select rating
Please do not post tabs as comments. Select "correction" instead!