Oops, an error
Loading. Please wait.

Im Not Pretending Tab

version 2
version 2

Whole song

292 views 1 this week
no commentswrite comment
1 2 3 4 5
3 more votes to show rating
add to favorites
launch autoscroll
font size
0
reset
how to read this tab
guitar tuner
Autoscroll
slow
fast
+/-
esc
set tempo
stop
Help us to improve Ultimate-Guitar.com Take our survey!
×
Author
-------------------------------------------------------------------------------
                             I'M NOT PRETENDING - Red Lipstick Letter
-------------------------------------------------------------------------------
Tabbed by: pyroclastpro
Email: hyperbolicparallelism@gmail.com
note: quantity doesn't resemble strokes, just listen to the track and this song can be 
figured out. palm-muted notes should be figured by you, i'm screwed on how to put the 
notes.

Tuning: Drop D

0:00
Guitar 1
e|--------------------------------------------------------------------|
B|-----0-------0--------0-------0--------0-------0-------0-------0----|
G|--0-0-0-0--0--0-0--0-0-0-0--0--0-0--0-0-0-0--0---0--0-0-0-0--0--0-0-|
D|-5-5---5--5-5--5--2-2---2--2-2--2-----------------------------------|
A|-----------------------------------5-5---5--5-5-5--3-3---3--3-3--3--|
D|--------------------------------------------------------------------|

0:12
Guitar 1
e|------------------------------------------------------------|
B|-----0-------0--------0-------0--------0-------0------------|
G|--0-0-0-0--0--0-0--0-0-0-0--0--0-0--0-0-0-0--0---0-55555555-|
D|-5-5---5--5-5--5--2-2---2--2-2--2------------------55555555-|
A|-----------------------------------5-5---5--5-5-5--33333333-|
D|------------------------------------------------------------|

Guitar 2
e|------------------------------------------------------------|
B|-10-------10------12-------12------10-------10--------------|
G|-----------------------------------------------------121212-|
D|-----------------------------------------------------xxxxxx-|
A|-----------------------------------------------------101212-|
D|------------------------------------------------------------|

0:24
Guitar 1
e|-------------------------------|
B|-------------------------------|
G|-------------------------------|
D|5555-5555-55----5555-5555-5555-|
A|5555-5555-55----5555-5555-5555-|
D|5555-5555-55----5555-5555-5555-|

Guitar 2
e|-------------------------------|
B|-------------------------------|
G|----------------1212-1212-1111-|
D|----------------xxxx-xxxx-xxxx-|
A|----------------1010-1010-9-9--|
D|-------------------------------|

0:30
Guitar 1
e|--------------------|
B|--------------------|
G|---------------5555-|
D|5555-2222-0000-5555-|
A|5555-2222-0000-3333-|
D|5555-2222-0000------|


Guitar 2
e|--------------------------|
B|--------------------------|
G|----7----7----7----7----7-|
D|-4-5--4-5--4-5--4-5--4-5--| [4x]
A|--------------------------|
D|--------------------------|

0:42
Guitar 1
e|-------------------|
B|-------------------|
G|---------5555------|
D|5--2--0--5555------|
A|5--2--0--3333------|
D|5--2--0------------|

Guitar 2
e|--------------------------------------------|
B|--------------------------------------------|
G|12-121211-12-121211-12-121211-121212-141414-|
D|x--xxxxx--x--xxxxx--x--xxxxx--xxxxxx-xxxxxx-|
A|10-10109--10-10109--10-10109--101010-121212-|
D|--------------------------------------------|

0:54
Guitar 1
e|----------------------------------------------------|
B|----------------------------------------------------|
G|---------------------------------------555555555555-|
D|555555555555-222222222222-000000000000-555555555555-|
A|555555555555-222222222222-000000000000-333333333333-|
D|555555555555-222222222222-000000000000--------------|

1:06
Guitar 1
e|--------------------|
B|--------------------|
G|---------------5555-| [x2]
D|5555-2222-0000-5555-|
A|5555-2222-0000-3333-|
D|5555-2222-0000------|

Guitar 2
e|----------------------------------------------------|
B|----------------------------------------------------|
G|121211-121211-12121414-----7----7----7----7----7----| [x2]
D|xxxxx--xxxxx--xxxxxxxx--4-5--4-5--4-5--4-5--4-5-----|
A|10109--10109--10101212------------------------------|
D|----------------------------------------------------|

1:30
Guitar 1
e|----------------------------------------------------|
B|----------------------------------------------------|
G|---------------------------------------555555555555-|
D|555555555555-222222222222-000000000000-555555555555-|
A|555555555555-222222222222-000000000000-333333333333-|
D|555555555555-222222222222-000000000000--------------|

1:42
Guitar 1
e|----------------------------------------------------|
B|----------------------------------------------------|
G|---------------------------------------555555555555-|
D|555555555555-222222222222-000000000000-555555555555-|
A|555555555555-222222222222-000000000000-333333333333-|
D|555555555555-222222222222-000000000000--------------|

Guitar2
e|----------------------------------------------------------------|
B|-----0-------0--------0-------0--------0-------0----------------|
G|--0-0-0-0--0--0-0--0-0-0-0--0--0-0--0-0-0-0--0---0-555555555555-|
D|-5-5---5--5-5--5--2-2---2--2-2--2------------------555555555555-|
A|-----------------------------------5-5---5--5-5-5--333333333333-|
D|----------------------------------------------------------------|

1:54
Guitar 1
e|--------------------|
B|--------------------|
G|---------------5555-|  [x2]
D|5555-2222-0000-5555-|
A|5555-2222-0000-3333-|
D|5555-2222-0000------|

Guitar 2
e|----------------------------------------------------|
B|----------------------------------------------------|
G|121211-121211-12121414-----7----7----7----7----7----| [x2]
D|xxxxx--xxxxx--xxxxxxxx--4-5--4-5--4-5--4-5--4-5-----|
A|10109--10109--10101212------------------------------|
D|----------------------------------------------------|

2:18
Guitar 1
e|--------------------------------------------------------------------|
B|-----0-------0--------0-------0--------0-------0-------0-------0----|
G|--0-0-0-0--0--0-0--0-0-0-0--0--0-0--0-0-0-0--0---0--0-0-0-0--0--0-0-|
D|-5-5---5--5-5--5--2-2---2--2-2--2-----------------------------------|  [x3]
A|-----------------------------------5-5---5--5-5-5--3-3---3--3-3--3--|
D|--------------------------------------------------------------------|

2:54
Guitar 1
e|------------------------------------------------------------|
B|-----0-------0--------0-------0--------0-------0------------|
G|--0-0-0-0--0--0-0--0-0-0-0--0--0-0--0-0-0-0--0---0-55555555-|
D|-5-5---5--5-5--5--2-2---2--2-2--2------------------55555555-|
A|-----------------------------------5-5---5--5-5-5--33333333-|
D|------------------------------------------------------------|
3:06
Guitar 1
e|-------------------------------|
B|-------------------------------|
G|-------------------------------|
D|5555-5555-55----5555-5555-5555-|
A|5555-5555-55----5555-5555-5555-|
D|5555-5555-55----5555-5555-5555-|

Guitar 2
e|-------------------------------|
B|-------------------------------|
G|----------------1212-1212-1111-|
D|----------------xxxx-xxxx-xxxx-|
A|----------------1010-1010-9-9--|
D|-------------------------------|

3:12
Guitar 1
e|----------------------------------------------------|
B|----------------------------------------------------|
G|---------------------------------------555555555555-|
D|555555555555-222222222222-000000000000-555555555555-| [x2]
A|555555555555-222222222222-000000000000-333333333333-|
D|555555555555-222222222222-000000000000--------------|

3:35
Guitar 1
e|----------------------------------------------------|
B|----------------------------------------------------|
G|---------------------------------------555555555555-|
D|555555555555-222222222222-000000000000-555555555555-| [x2]
A|555555555555-222222222222-000000000000-333333333333-|
D|555555555555-222222222222-000000000000--------------|

Guitar 2
e|--------------------------|
B|--------------------------|
G|----7----7----7----7----7-|
D|-4-5--4-5--4-5--4-5--4-5--| [8x]
A|--------------------------|
D|--------------------------|

4:00
Guitar 1
e|---|
B|---|
G|---|
D|5--|
A|5--|
D|5--|

| /  slide up
| \  slide down
| h  hammer-on
| p  pull-off
| ~  vibrato
| +  harmonic
| x  Mute note
===============================================================================
Suggest correction
Give kudos to tab author, rate the tab!
1 2 3 4 5
comments
print report bad tab
guest
You may want to rate the tab now too:
select rating
Wanna post a correction for this tab? Suggest correction