Oops, an error
Loading. Please wait.

Lunatic Fringe Tab

version 1
version 1

Whole song

Interactive

30,993 views 33 this week
3 commentsread comments
1 2 3 4 5
x 21
add to favorites
launch autoscroll
font size
0
reset
how to read this tab
guitar tuner
backing track
0:00
0:00
×
Best way to learn
"Lunatic Fringe"
Autoscroll
slow
fast
+/-
esc
set tempo
stop
Author
Difficulty
intermediate
[Intro]
e|-----------------------------------|
B|-----------------------------------|
G|-----------------------------------|
D|--4-4---x4-4---x4-4---x4-4---------|
A|--2-2---x2-2---x2-2---x2-2---------|
E|------------------------------PS---|
                                   
e|-----------------------------------|
B|-----------------------------------|
G|--2-2-----2-2-----2-2-----2-2------|
D|------0h2-----0h2-----0h2-----0h2--|
A|-----------------------------------|
E|-----------------------------------|

Lunatic Fringe! 
e|-----------------------------------|
B|-----------------------------------|
G|--4-4-----4-4-----4-4-----4-4------|
D|------2h4-----2h4-----2h4-----2h4--|
A|-----------------------------------|
E|-----------------------------------|

I know you're out there 
e|-----------------------------------|
B|--3-3-----3-3-----3-3-----3-3------|
G|------0h2-----0h2-----0h2-----0h2--|
D|-----------------------------------|
A|-----------------------------------|
E|-----------------------------------|

Your in hiding                              
e|-----------------------------------|
B|-----------------------------------|
G|--2-2-----2-2-----2-2-----2-2------|
D|------0h2-----0h2-----0h2-----0h2--|
A|-----------------------------------|
E|-----------------------------------|

And you hold your meetings
e|-----------------------------------|
B|-----------------------------------|
G|--4-4-----4-4-----4-4-----4-4------|
D|------2h4-----2h4-----2h4-----2h4--|
A|-----------------------------------|
E|-----------------------------------|

I can hear you comin' 
e|-----------------------------------|
B|--3-3-----3-3-----3-3-----3-3------|
G|------0h2-----0h2-----0h2------0h2-|
D|-----------------------------------|
A|-----------------------------------|
E|-----------------------------------|

And know what your after
e|-----------------------------------|
B|-----------------------------------|
G|--2-2-----2-2-----2-2-----2-2------|
D|------0h2-----0h2-----0h2-----0h2--|
A|-----------------------------------|
E|-----------------------------------|

We're wise to you this time (wise to you this time)
e|-----------------------------------|
B|-----------------------------------|
G|--4-4-----4-4-----4-4-----4-4------|
D|------2h4-----2h4-----2h4-----2h4--|
A|-----------------------------------|
E|-----------------------------------|

We won't let you kill the laughter
e|-----------------------------------|
B|-----------------------------------|
G|--2-2-----2-2-----2-2-----2-2------|
D|------0h2-----0h2-----0h2-----0h2--|
A|-----------------------------------|
E|-----------------------------------|
 
Uuuuhhh Huh!
e|---------------------------|
B|---------------------------|
G|---------------------------|
D|--4-4--4-4--4-4--4-4-------|
A|--2-2--2-2--2-2--2-2-------|
E|---------------------------|

Lunatic Fringe!
e|-----------------------------------|
B|--3-3-----3-3-----3-3-----3-3------|
G|------0h2-----0h2-----0h2------0h2-|
D|-----------------------------------|
A|-----------------------------------|
E|-----------------------------------|

In the twilight's last
gleeming                                                            
e|-----------------------------------|
B|-----------------------------------|
G|--2-2-----2-2-----2-2-----2-2------|
D|------0h2-----0h2-----0h2-----0h2--|
A|-----------------------------------|
E|-----------------------------------|

This is open season                                
e|-----------------------------------|
B|-----------------------------------|
G|--4-4-----4-4-----4-4-----4-4------|
D|------2h4-----2h4-----2h4-----2h4--|
A|-----------------------------------|
E|-----------------------------------|

But you won't get too far
e|-----------------------------------|
B|--3-3-----3-3-----3-3-----3-3------|
G|------0h2-----0h2-----0h2------0h2-|
D|-----------------------------------|
A|-----------------------------------|
E|-----------------------------------|

Cause you gotta blame someone
e|-----------------------------------|
B|-----------------------------------|
G|--2-2-----2-2-----2-2-----2-2------|
D|------0h2-----0h2-----0h2-----0h2--|
A|-----------------------------------|
E|-----------------------------------|

In your awe and confusion
e|-----------------------------------|
B|-----------------------------------|
G|--4-4-----4-4-----4-4-----4-4------|
D|------2h4-----2h4-----2h4-----2h4--|
A|-----------------------------------|
E|-----------------------------------|

We're all on gaurd this time (all on guard this time)                          
e|-----------------------------------|
B|-----------------------------------|
G|--2-2-----2-2-----2-2-----2-2------|
D|------0h2-----0h2-----0h2-----0h2--|
A|-----------------------------------|
E|-----------------------------------| 

It's the final solution!
e|---------------------------|
B|---------------------------|
G|---------------------------|
D|--4-4--4-4--4-4--4-4-------|
A|--2-2--2-2--2-2--2-2-------|
E|---------------------------|

[Solo]                                                      
e|-----------------------------------|
B|---15b17-15-14-------12----12------|
G|----------------2--/9----/9--------|
D|----------------2------------------|
A|-----------------------------------|
E|-----------------------------------|
      
e|-----------------------------------|
B|-----3\2-2-5\3-----/15-14-12-12----|
G|--2--------------------------------|
D|--2--------------------------------|
A|--0--------------------------------|
E|-----------------------------------|

e|---7/10-10/14-17-17\14------------------------------------------|
B|-------------------------------------3-2--------15\14-7\5-------|
G|----------------------/4-----4----4-------4p2-------------------|
D|-------------------------2h4---2h4------------------------------|
A|----------------------------------------------------------------|
E|----------------------------------------------------------------|

Uuuuhhh Huh
e|--------------------------------------|
B|-----------------------5b7r5-5-3------|
G|---------------------------------4-4--|
D|--4-4--4-4--4-4--4-4------------------|
A|--2-2--2-2--2-2--2-2------------------|
E|--------------------------------------|

I can hear you comin' (I can hear you comin')
e|-----------------------------------|
B|-----------------------------------|
G|--2-2-----2-2-----2-2-----2-2------|
D|------0h2-----0h2-----0h2-----0h2--|
A|-----------------------------------|
E|-----------------------------------|

No,you're not gonna win this time (not gonna win)
e|-----------------------------------|
B|-----------------------------------|
G|--4-4-----4-4-----4-4-----4-4------|
D|------2h4-----2h4-----2h4-----2h4--|
A|-----------------------------------|
E|-----------------------------------|

We can hear the footsteps
e|-----------------------------------|
B|-----------------------------------|
G|--2-2-----2-2-----2-2-----2-2------|
D|------0h2-----0h2-----0h2-----0h2--|
A|-----------------------------------|
E|-----------------------------------|

Out along the walkway (Out along the walkway)
e|-----------------------------------|
B|-----------------------------------|
G|--4-4-----4-4-----4-4-----4-4------|
D|------2h4-----2h4-----2h4-----2h4--|
A|-----------------------------------|
E|-----------------------------------|

Lunatic Fringe!
e|-----------------------------------|
B|--3-3-----3-3-----3-3------3-3-----|
G|------0h2-----0h2-----0h2------0h2-|
D|-----------------------------------|
A|-----------------------------------|
E|-----------------------------------|

We all know your out there
e|-----------------------------------|
B|-----------------------------------|
G|--2-2-----2-2-----2-2-----2-2------|
D|------0h2-----0h2-----0h2-----0h2--|
A|-----------------------------------|
E|-----------------------------------|

Can you feel the resistance
e|-----------------------------------|
B|-----------------------------------|
G|--4-4-----4-4-----4-4-----4-4------|
D|------2h4-----2h4-----2h4-----2h4--|
A|-----------------------------------|
E|-----------------------------------|

Can you feel it comin'!!!
e|-----------------------------------|
B|-----------------------------------|
G|--2-2-----2-2-----2-2-----2-2------|
D|------0h2-----0h2-----0h2-----0h2--|
A|-----------------------------------|
E|-----------------------------------|

e|------------------------------------------------------------------------|
B|------------------------------------------------------------------------|
G|------------------------------------------------------------------------|
D|--4-4--4-4--4-4--4-4---4---4-4--4-4--4-4--4-4--4-4-4--4-4--4-4--4-4-----|
A|--2-2--2-2--2-2--2-2---2---2-2--2-2--2-2--2-2--2-2-2--2-2--2-2--2-2-----|
E|------------------------------------------------------------------------|


************************************

| x  Dead note
| h  Hammer-on
| b  Bend
| /  Slide up
| \  Slide down
| p  Pull-off
| r  Release

************************************
Suggest correction
comments
print report bad tab
3 comments total.
+2 reply
ZPinkZeppelinS 50 Feb 12, 2011 09:59 AM

It doesn't match the song, I think it needs some changing cause it's all over the place

0 reply
swave75 382 Dec 26, 2011 05:25 PM

I think it's pretty cool!!!

0 reply
johnnydead83 10 Dec 13, 2013 02:28 PM

It doesn't sound *quite* right to me in places (the chorus), but then I'm not a stellar musician yet. Don't take my opinion as gospel. The verse sounds okay, though.

guest
You may want to rate the tab now too:
select rating
Wanna post a correction for this tab? Suggest correction