Oops, an error
Loading. Please wait.

Aspirin Bass Tab

436 views 1 this week
no commentswrite comment
1 2 3 4 5
1 last vote to show rating
add to favorites
launch autoscroll
font size
0
reset
guitar tuner
Autoscroll
slow
fast
+/-
esc
set tempo
stop
Help us to improve Ultimate-Guitar.com Take our survey!
×
Author
Difficulty
novice
INTRO
G|-------------------------------------|
D|-------------------------------------|
A|--------10-10-10-10-9-7-7-7-7-5-5-0--|
E|-7-7-7-------------------------------|

G|-------------------------------------|
D|-------------------------------------|
A|-------10-10-10-10-9-12-12-12-14-14--|
E|-7-7-7-------------------------------|

VERSE
G|-----------------------------------------|
D|-----------------------------------------|
A|---------10-10-10-7-7-7------------------|
E|-7 x 16------------------7-7-7-7-7-7-7-7-|

G|------------------|
D|------------------|
A|------------------|
E|-7 x 16---3 x 16--|


INTRO TO CHORUS
G|---------------------------------|
D|---------------------------------|
A|-2-2-2-2---------5-5-5-5-5-5-5-5-|
E|---------3-3-3-3-----------------|

CHORUS
G|----------------------------------|
D|----------------------------------|
A|-2 x 12----------5 x 12-----------|
E|---------3 x 12----------3 x 12---|


BRIDGE
G|-------------------------|
D|-------------------------|
A|-10-10-10-10-10-12-10-10-|
E|-------------------------|

G|-----------------|
D|-----------5-----|
A|-7-7-7-7-7---7-7-|
E|-----------------|

G|---------------------------------|
D|---------------------------------|
A|---------------------------------|
E|-7-7-7-7-7-7-7-7-9-9-9-9-9-9-9-9-|


G|------------------------------------------------------------|
D|---------9----------9---------11-------11-------11-11-11-11-|
A|-7-7-7-7----7-7-7-7---9-9-9-9----9-9-9----9-9-9-------------|
E|------------------------------------------------------------|


Order of tab:
INTRO
VERSE
CHORUS
INTRO
VERSE
CHORUS
BRIDGE
VERSE
Suggest correction
Give kudos to tab author, rate the tab!
1 2 3 4 5
comments
print report bad tab
guest
You may want to rate the tab now too:
select rating
Wanna post a correction for this tab? Suggest correction