Oops, an error
Loading. Please wait.

Slide In Next To Me Bass Tab

version 1
version 1

Whole song

611 views 1 this week
no commentswrite comment
1 2 3 4 5
1 last vote to show rating
add to favorites
launch autoscroll
font size
0
reset
guitar tuner
Autoscroll
slow
fast
+/-
esc
set tempo
stop
Help us to improve Ultimate-Guitar.com Take our survey!
×
Author
Difficulty
novice
Intro and verse riff:

g|-------------------------|----------------------|
d|-------------------------|-------------------9--|
a|---9----10----9-----12---|---9----10----5--7--7-|
e|-7--7-8---8-7--7-10---10-|-7--7-8---8-3--3------|

play this riff between the chorus and verses and also during the solo.

Chorus:

g|-----------------|--------------------|
d|-----------------|--------------------|
a|--9---10--9---10-|--9---10----12---10-|
e|-7---8---7---8---|-7---8---10----8----| x 2

g|--------------------|
d|--------------------|
a|--------------------| x 4 (8 on last time)
e|-33333333-5555-0000-|

Outro:

g|---------------------------------|
d|-7-7-7-7-7-7-7-7-7-7-7-7-7-7-7-7-|
a|---------------------------------|
e|---------------------------------|

Cheers.
Suggest correction
Give kudos to tab author, rate the tab!
1 2 3 4 5
comments
print report bad tab
guest
You may want to rate the tab now too:
select rating
Wanna post a correction for this tab? Suggest correction