Oops, an error
Loading. Please wait.

Slide In Next To Me Bass Tab

version 2
version 2

Whole song

172 views 3 this week
no commentswrite comment
1 2 3 4 5
please rate
add to favorites
launch autoscroll
font size
0
reset
guitar tuner
Autoscroll
slow
fast
+/-
esc
set tempo
stop
Help us to improve Ultimate-Guitar.com Take our survey!
×
Contributor
-------------------------------------------------------------------------------
			     Slide In Next To Me - Red Riders
-------------------------------------------------------------------------------

Tabbed by: Uber-rocker
Email: kaigrant_88@hotmail.com

Tuning: Standard

4/4 time, eight bar drum + bass intro

Intro/first verse:

G|---------------------------------------------------------------------------|
D|--4-----5-----4-----7-----4-----5-----------9------------------------------|
A|2---2-3---3-2---2-5---5-2---2-3---3---5---7---7----------------------------|
E|------------------------------------3---3----------------------------------|

Chorus:
 | Part one ("if you want it..")   | Part two ("slide in next to me")
G|---------------------------------|------------------------------------------|
D|--4---5---4---5---4---5---77--55-|------------------------------------------|
A|22---3--22---3--22---3--55--33---|---------000------------------------------|
E|---------------------------------|-333-333-----000--------------------------|

Second verse
  Lead-in                   |   verse proper
G|--------------------------|--------------------------------------------------|
D|--4-----5-----4-----5-----|---4-----5-----4-----7-----4-----5-----------9----|
A|2---2-3---3-2---2-3---3---|-2---2-3---3-2---2-5---5-2---2-3---3---5---7---7--|
E|--------------------------|-------------------------------------3---3--------|

Final Chorus:
 There's a slight variation to this chorus from the others

| Part one ("if you want it..")    | Part two ("slide in next to me")
G|---------------------------------|-------------------------------------------|
D|--4---5---4---5---4---5---77--55-|-------------------------------------------|
A|22---3--22---3--22---3--55--33---|---------0000------------------------------|
E|---------------------------------|-33333333----0000--------------------------|



Outro:

 Played staccato 
G|---------------------------------------------------------------------------|
D|---------------------------------------------------------------------------|
A|7-7-7-7-7-7-7-7-7-7-7-7-7-7-7-7--------------------------------------------|
E|---------------------------------------------------------------------------|

Order:

Intro/First verse x 3
Chorus pt. 1 x 2
Chorus pt. 2 x 3
Lead in x 1
Second verse x 2
Chorus pt. 1 x 2
Chorus pt. 2 x 3
Verse (during solo) x 1
Final Chorus pt. 1 x 2
Final Chorus pt. 2 x 6
Outro

| /  slide up
| \  slide down
| h  hammer-on
| p  pull-off
| ~  vibrato
| +  harmonic
| x  Mute note
===============================================================================


comments
We did not receive enough feedback on this tab! Please rate:
print report bad tab
1 2 3 4 5
I want to post or [tab]
guest
You may want to rate the tab now too:
select rating
Please do not post tabs as comments. Select "correction" instead!