Oops, an error
Loading. Please wait.

So-So tab

6,032 views 1 this week
no commentswrite comment
1 2 3 4 5
1 last vote to show rating
add to favorites
×
Save as Personal and add changes to this tab that will be seen only by you. Learn more ›
×
You can save this tab as Personal to edit and correct it or add notes. All changes will be seen only by you. Learn more »
launch autoscroll
font size
0
reset
how to read this tab
guitar tuner
edit
Autoscroll
slow
fast
+/-
esc
set tempo
stop
Author
Difficulty
a gang of kids ask me to teach this to em so heres tha tab..its not all right and 
shit, but its close~! if you know something, share it! 

-Germ

so-so: Red Store Bums

intro
e:-7-----7-----------|-7-----7-----------|-5-----5----3-----2---------|
B:---8-----8---8-----|---7-----7---7-----|---5-----5--5-x6--3-x2------|
G:-----7-----7-------|-----7-----7-------|-----5------5-----2---------|
D:-------------------|-------------------|----------------------------|
A:-------------------|-------------------|----------------------------|
E:-------------------|-------------------|----------------------------|

e:-7-----7-----------|-7-----7-----------|-5-----5----3-----2---------|
B:---8-----8---------|---7-----7---7-----|---5-----5--5-x6--3-x2------|
G:-----7-----7-------|-----7-----7-------|-----5------5-----2---------|
D:-------------------|-------------------|----------------------------|
A:-------------------|-------------------|----------------------------|
E:-------------------|-------------------|----------------------------|

trumpet part for guitar
e:-----------------|-10-7~---10-8-8-7-7--|----10-8-8-7-8-7----7-------|
B:--7-8-7-8-7-8----|---------------------|-10--------------10---------|
G:-----------------|---------------------|----------------------------|
D:-----------------|---------------------|----------------------------|
A:-----------------|---------------------|----------------------------|
E:-----------------|---------------------|----------------------------|

e:-----------------|-10-7~--10-10-10-8-8-|-8-7---10-8-7-8-7------10-7-|
B:--7-8-7-8-7-8----|---------------------|----10------------10-8----8-|
G:-----------------|---------------------|--------------------------7-|
D:-----------------|---------------------|----------------------------|
A:-----------------|---------------------|----------------------------|
E:-----------------|---------------------|----------------------------|

chords
e:-7------7--------|---5------3-3/--2----|----------------------------|
B:-8-x5---7-x4-----|---5-x4---5-5/--3----|----------------------------|
G:-7------7--------|---5------5-5/--2----|------x5--------------------|
D:-----------------|---------------------|----------------------------|
A:-----------------|---------------------|----------------------------|
E:-----------------|---------------------|----------------------------|

chorus
e:-7------10-------|---8--------10-------|--12------10-----8-------10---|
B:-8-x5---10-------|---8--------10-------|--12------10-----8-------10---|
G:-7------11-------|---9--------11-------|--13------11-----9-------11---|
D:--------12-x4----|---10--x4---12--4----|--14-x5---12-x4--10--x4--12-x4|
A:--------12-------|---10-------12-------|--14------12-----10------12---|
E:--------10-------|---8--------10-------|--12------10-----8-------10---|

e:--12------10-----|-8-------10--8---7---5-|
B:--12------10-----|-8-------10--8---7---5-|
G:--13------11-----|-9-------11--9---8---6-|
D:--14-x5---12-x4--|-10--x4--12--10--9---7-|
A:--14------12-----|-10------12--10--9---7-|
E:--12------10-----|-8-------10--8---7---5-|


trumpet part for guitar
e:-----------------|-10-7~---10-8-8-7-7--|----10-8-8-7-8-7----7-------|
B:--7-8-7-8-7-8----|---------------------|-10--------------10---------|
G:-----------------|---------------------|----------------------------|
D:-----------------|---------------------|----------------------------|
A:-----------------|---------------------|----------------------------|
E:-----------------|---------------------|----------------------------|

e:-----------------|-10-7~--10-10-10-8-8-|-8-7---10-8-7-8-7------10-7-|
B:--7-8-7-8-7-8----|---------------------|----10------------10-8----8-|
G:-----------------|---------------------|--------------------------7-|
D:-----------------|---------------------|----------------------------|
A:-----------------|---------------------|----------------------------|
E:-----------------|---------------------|----------------------------|

chords
e:-7------7--------|---5------3-3/--2----|----------------------------|
B:-8-x5---7-x4-----|---5-x4---5-5/--3----|----------------------------|
G:-7------7--------|---5------5-5/--2----|------x5--------------------|
D:-----------------|---------------------|----------------------------|
A:-----------------|---------------------|----------------------------|
E:-----------------|---------------------|----------------------------|
i don't know the solo, but you play the chords.
then the trumpet solo,
e:-----------------|-10-7~---10-8-8-7-7--|----10-8-8-7-8-7----7-------|
B:--7-8-7-8-7-8----|---------------------|-10--------------10---------|
G:-----------------|---------------------|----------------------------|
D:-----------------|---------------------|----------------------------|
A:-----------------|---------------------|----------------------------|
E:-----------------|---------------------|----------------------------|

e:-----------------|-10-7~--10-10-10-8-8-|-8-7---10-8-7-8-7------10-7-|
B:--7-8-7-8-7-8----|---------------------|----10------------10-8----8-|
G:-----------------|---------------------|--------------------------7-|
D:-----------------|---------------------|----------------------------|
A:-----------------|---------------------|----------------------------|
E:-----------------|---------------------|----------------------------|
at the end of the song:
e:-7-----7-----------|-7-----7-8-7-------|-5-----5----3-----2------3---|
B:---8-----8---8-----|---7---------7---7-|---5-----5--5-x6--3-x2---3---|
G:-----7-----7-------|-----7---------7---|-----5------5-----2------4---|
D:-------------------|-------------------|-------------------------5---|
A:-------------------|-------------------|-------------------------5---|
E:-------------------|-------------------|-------------------------3---|

Sitting here in my room
thinking of the day you would love me too
Hoping that you'll come
Come to me please baby be with me
You're that special girl
The one that both fills my heart and soul
If you get with me
I promise you the world I can guarantee

Yea..
Ohh yea...

I'm hoping, and wanting and wishing that you will someday be with me
I'm falling madly in love with you
Oh won't you stay with me?

now some time has passed
I guess you can see what you mean to me
and so you took a chance
And gave me the key to your heart

I will not mess up
You will not regret what you've done for me and you
I will be the one to come to you, kiss you and be with you
When I look into your eyes I can see the stars up above yea, oh yeah
When you look into my heart..
All you would see is me, you and a family
yea..
ohh yea..

            
            
Suggest correction
Creating personal tab
Creating personal tab
You can edit any tab online and save it as your Personal.

You can edit, replace or remove any tab part or add personal notes – all changes will be seen only by you.

Personal tabs can be accessed anytime from any device, even offline.
Learn more »
Give kudos to tab author, rate the tab!
1 2 3 4 5
comments
print report bad tab
guest
You may want to rate the tab now too:
select rating
Wanna post a correction for this tab? Suggest correction