Oops, an error
Loading. Please wait.

Amnesia bass

220 views 3 this week
no commentswrite comment
1 2 3 4 5
2 more votes to show rating
add to favorites
×
Save as Personal and add changes to this tab that will be seen only by you. Learn more ›
×
You can save this tab as Personal to edit and correct it or add notes. All changes will be seen only by you. Learn more »
launch autoscroll
font size
0
reset
guitar tuner
edit
Autoscroll
slow
fast
+/-
esc
set tempo
stop
About this tab version
Full bass tab - start to finish. Was this info helpful? Yes No
Artist/Song:  Red Sun Rising - Amnesia
Album:        Polyester Zeal
Tuning:       Eb standard bass
tabbed by:    jjhand


[Intro]
   Start on the 4th bar of the guitar part to match the same melody
Gb|----------------------|-----------------|-----------------|-----------------|
Db|----------------------|-----------------|-----------------|-----------------|
Ab|-11---11-11-9-9-11----|-----------------|-----------------|-----------------|
Eb|-------------------12-|-0-0-0-0-0-0-0-0-|-0-0-0-0-0-0-0-0-|-0-0-0-0-0-0-0-0-|

Gb|----------------------|
Db|----------------------|
Ab|-11---11-11-9-9-11----|
Eb|-------------------12-|


[Verse]
   straight eighth notes
Gb|-----------------|-----------------|-----------------|-----------------|
Db|-----------------|-----------------|-----------------|-----------------|
Ab|-----------------|-----------------|-----------------|-----------------|
Eb|-3-3-3-3-3-3-3-3-|-3-3-3-3-5-5-5-5-|-3-3-3-3-3-3-3-3-|-3-3-3-3-5-5-5-5-|

Gb|-----------------|-----------------|-----------------|-----------------|
Db|-----------------|-----------------|-----------------|-----------------|
Ab|-----------------|-----------------|-----------------|-----------------|
Eb|-3-3-3-3-3-3-3-3-|-3-3-3-3-5-5-5-5-|-3-3-3-3-3-3-3-3-|-3-3-3-3-5-5-5---|


[Prechorus]
Gb|--------------------|----------------------|----------------------|-------------------------|
Db|--------------------|----------------------|----------------------|-------------------------|
Ab|--------------------|----------------------|----------------------|-------------------------|
Eb|-8----8----8--7--5--|----5----5--5--5------|-8----8----8--8--8----|-10-10-10-10-10-10-10-10-|


[Chorus]
Gb|---------------------|-------------------|---------------------|--------------------|
Db|---------------------|-------------------|---------------------|--------------------|
Ab|---------------------|-------------------|---------------------|--------------------|
Eb|-0----0----0-0----0--|----0----5----7----|-8----8----8-8----8--|----8----8--7--5--0-|

Gb|---------------------|-------------------|---------------------|-------------------|
Db|---------------------|-------------------|---------------------|-------------------|
Ab|---------------------|-------------------|-5----5----5-5----5--|----5----7----8----|
Eb|-3----3----3-3----3--|----3----5----7----|---------------------|-------------------|

Gb|---------------------|-------------------|---------------------|--------------------|
Db|---------------------|-------------------|---------------------|--------------------|
Ab|---------------------|-------------------|---------------------|--------------------|
Eb|-0----0----0-0----0--|----0----5----7----|-8----8----8-8----8--|----8----8--7--5--0-|

Gb|---------------------|-------------------|------------------------|-------------------|
Db|---------------------|-------------------|------------------------|-------------------|
Ab|---------------------|-------------------|------------------------|-------------------|
Eb|-3----3----3-3----3--|----3----5----6----|-7--7--7--7--7--7--7--7-|-7----5----3----2--|



[Solo]
   play 2x
Gb|-----------------------|--------------------|-----------------------|-------------------|
Db|-----------------------|--------------------|-----------------------|-------------------|
Ab|-----------------------|--------------------|-----------------------|-------------------|
Eb|-0--0--0----0--0----0--|----0----0--0--0----|-3--3--3----3--3----3--|----3----3--3--3---|


[Bridge]
Gb|--------------|--------------|
Db|--------------|--------------|
Ab|--------------|--------------|  play 4x
Eb|-8------------|-10-----------|


[Final Chorus]
Gb|---------------------|-------------------|---------------------|--------------------|
Db|---------------------|-------------------|---------------------|--------------------|
Ab|---------------------|-------------------|---------------------|--------------------|
Eb|-0----0----0-0----0--|----0----5----7----|-8----8----8-8----8--|----8----8--7--5--0-|

Gb|---------------------|-------------------|---------------------|-------------------|
Db|---------------------|-------------------|---------------------|-------------------|
Ab|---------------------|-------------------|-5----5----5-5----5--|----5----7----8----|
Eb|-3----3----3-3----3--|----3----5----7----|---------------------|-------------------|

Gb|---------------------|-------------------|---------------------|--------------------|
Db|---------------------|-------------------|---------------------|--------------------|
Ab|---------------------|-------------------|---------------------|--------------------|
Eb|-0----0----0-0----0--|----0----5----7----|-8----8----8-8----8--|----8----8--7--5--0-|

Gb|---------------------|-------------------|------------------------|-------------------|
Db|---------------------|-------------------|------------------------|-------------------|
Ab|---------------------|-------------------|------------------------|-------------------|
Eb|-3----3----3-3----3--|----3----5----6----|-7--7--7--7--7--7--7--7-|-7----5----3----2--|


[Outro]
Gb|-----------------|-----------------|-----------------|-----------------|
Db|-----------------|-----------------|-----------------|-----------------|
Ab|-----------------|-----------------|-----------------|-----------------|
Eb|-0-0-0-0-0-0-0-0-|-0-0-0-0-0-0-0-0-|-0-0-0-0-0-0-0-0-|-0-0-0-0-0-0-0---|





Key:
| /  slide up
| \  slide down
| h  hammer-on
| p  pull-off

            
            
Suggest correction
Creating personal tab
Creating personal tab
You can edit any tab online and save it as your Personal.

You can edit, replace or remove any tab part or add personal notes – all changes will be seen only by you.

Personal tabs can be accessed anytime from any device, even offline.
Learn more »
Give kudos to tab author, rate the tab!
1 2 3 4 5
comments
print report bad tab
guest
You may want to rate the tab now too:
select rating
Wanna post a correction for this tab? Suggest correction