Oops, an error
Loading. Please wait.

Amnesia tab

1,279 views 51 this week
no commentswrite comment
1 2 3 4 5
x 3
add to favorites
×
Save as Personal and add changes to this tab that will be seen only by you. Learn more ›
×
You can save this tab as Personal to edit and correct it or add notes. All changes will be seen only by you. Learn more »
launch autoscroll
font size
0
reset
how to read this tab
guitar tuner
edit
Autoscroll
slow
fast
+/-
esc
set tempo
stop
About this tab version
Full guitar tab version taken from the original and live version. Was this info helpful? Yes No
Artist:    Red Sun Rising
Song:      Amnesia
Tuning:    Eb standard - all strings tuned down by a half step (1 fret)
Tabbed by: jjhand

Hope you like this tab. The chord version may also be helpful when learning 
it since it gives the timing along with the lyrics. Thanks in advance for 
the ratings and comments. 

[Intro]
    Slide down to open Eb at beginning of riff on first time
eb|---------------------|--------------------------|
Bb|---------------------|--------------------------|
Gb|------------------14-|-13---13-13-11-11-13-13\--|
Db|---------------------|--------------------------|
Ab|------------------12-|-11---11-11--9--9-11-11\--|
Eb|-0----5-4-------0----|--------------------------|

eb|---------------------|--------------------------|
Bb|---------------------|--------------------------|
Gb|------------------14-|-13---13-13-11-11-13------|
Db|---------------------|---------------------14\--|
Ab|------------------12-|-11---11-11--9--9-11------|
Eb|-0----5-4-------0----|---------------------12\--|

eb|---------------------|--------------------------|
Bb|---------------------|--------------------------|
Gb|------------------14-|-13---13-13-11-11-13-13\--|
Db|---------------------|--------------------------|
Ab|------------------12-|-11---11-11--9--9-11-11\--|
Eb|-0----5-4-------0----|--------------------------|

eb|---------------------|--------------------------|
Bb|---------------------|--------------------------|
Gb|------------------14-|-13---13-13-11-11-13------|
Db|---------------------|---------------------14\--|
Ab|------------------12-|-11---11-11--9--9-11------|
Eb|-0----5-4-------0----|---------------------12\--|



[Verse Riff]
    use PM throughout
eb|-------------------------|-------------------------|
Bb|-------------------------|-------------------------|
Gb|-------------------------|-------------------------|
Db|-------------------------|-------------------------|
Ab|-5--5--5--5--5--5--5--5--|-5--5--5--5--7--7--7--7--|
Eb|-3--3--3--3--3--3--3--3--|-3--3--3--3--5--5--5--5--|    play 4x



[Prechorus]
eb|--------------------|----------------------|----------------------|-------------------------|
Bb|--------------------|----------------------|----------------------|-------------------------|
Gb|--------------------|----------------------|----------------------|-------------------------|
Db|--------------------|----------------------|----------------------|-------------------------|
Ab|-7----7----7--5--4--|----4----4--4--4------|-7----7----7--7--7----|-9--9--9--9--9--9--9--9--|
Eb|-8----8----8--7--5--|----5----5--5--5------|-8----8----8--8--8----|-10-10-10-10-10-10-10-10-|



[Chorus]
    Guitar 1
eb|---------------------|---------------------|----------------------|---------------------|
Bb|---------------------|---------------------|----------------------|---------------------|
Gb|-1----1----1-1----1--|-----1----1--1--1----|-5----5----5-5-----5--|-----5----5--5--5----|
Db|-2----2----2-2----2--|-----2----2--2--2----|-5----5----5-5-----5--|-----5----5--5--5----|
Ab|-2----2----2-2----2--|-----2----2--2--2----|-3----3----3-3-----3--|-----3----3--3--3----|
Eb|-0----0----0-0----0--|-----0----0--0--0----|----------------------|---------------------|
  |
  | Guitar 2
eb|---------------------|---------------------|----------------------|---------------------|
Bb|---------------------|---------------------|----------------------|---------------------|
Gb|-13---13---13-13--13-|----13---13-13-13\12-|-12---12---12-12--12--|-----12---12-12-12---|
Db|---------------------|---------------------|----------------------|---------------------|
Ab|-11---11---11-11--11-|----11---11-11-11\10-|-10---10---10-10--10--|-----10---10-10-10---|
Eb|---------------------|---------------------|----------------------|---------------------|


    Guitar 1
eb|---------------------|---------------------|---------------------|---------------------|
Bb|---------------------|---------------------|---------------------|---------------------|
Gb|---------------------|---------------------|-7----7----7-7----7--|-----7----7--7--7----|
Db|-5----5----5-5----5--|-----5----5--5--5----|-7----7----7-7----7--|-----7----7--7--7----|
Ab|-5----5----5-5----5--|-----5----5--5--5----|-5----5----5-5----5--|-----5----5--5--5----|
Eb|-3----3----3-3----3--|-----3----3--3--3----|---------------------|---------------------|
  |
  | Guitar 2
eb|---------------------|---------------------|---------------------|---------------------|
Bb|---------------------|---------------------|---------------------|---------------------|
Gb|-12---12---12-12--12-|-----12---12-12-12---|-11--11---11-11--11--|----11---11-11-11----|
Db|---------------------|---------------------|---------------------|---------------------|
Ab|-10---10---10-10--10-|-----10---10-10-10---|--9---9----9--9---9--|-----9----9--9--9----|
Eb|---------------------|---------------------|---------------------|---------------------|

    Guitar 1
eb|---------------------|---------------------|----------------------|---------------------|
Bb|---------------------|---------------------|----------------------|---------------------|
Gb|-1----1----1-1----1--|-----1----1--1--1----|-5----5----5-5-----5--|-----5----5--5--5----|
Db|-2----2----2-2----2--|-----2----2--2--2----|-5----5----5-5-----5--|-----5----5--5--5----|
Ab|-2----2----2-2----2--|-----2----2--2--2----|-3----3----3-3-----3--|-----3----3--3--3----|
Eb|-0----0----0-0----0--|-----0----0--0--0----|----------------------|---------------------|
  |
  | Guitar 2
eb|---------------------|---------------------|----------------------|---------------------|
Bb|---------------------|---------------------|----------------------|---------------------|
Gb|-13---13---13-13--13-|----13---13-13-13\12-|-12---12---12-12--12--|-----12---12-12-12---|
Db|---------------------|---------------------|----------------------|---------------------|
Ab|-11---11---11-11--11-|----11---11-11-11\10-|-10---10---10-10--10--|-----10---10-10-10---|
Eb|---------------------|---------------------|----------------------|---------------------|


    Guitar 1
eb|---------------------|---------------------|---------------------|---------------------|
Bb|---------------------|---------------------|---------------------|---------------------|
Gb|---------------------|---------------------|-4----4----4-4----4--|-----4----4--4--4----|
Db|-5----5----5-5----5--|-----5----5--5--5----|-4----4----4-4----4--|-----4----4--4--4----|
Ab|-5----5----5-5----5--|-----5----5--5--5----|-2----2----2-2----2--|-----2----2--2--2----|
Eb|-3----3----3-3----3--|-----3----3--3--3----|---------------------|---------------------|
  |
  | Guitar 2
eb|---------------------|---------------------|---------------------|---------------------|
Bb|---------------------|---------------------|-12---12---12-12--12-|----12---12-12-12----|
Gb|-12---12---12-12--12-|-----12---12-12-12---|---------------------|---------------------|
Db|---------------------|---------------------|--9---9----9--9---9--|-----9----9--9--9----|
Ab|-10---10---10-10--10-|-----10---10-10-10---|---------------------|---------------------|
Eb|---------------------|---------------------|---------------------|---------------------|



[Pre-Verse]
eb|---------------------|--------------------------|
Bb|---------------------|--------------------------|
Gb|------------------14-|-13---13-13-11-11-13-13\--|
Db|---------------------|--------------------------|
Ab|------------------12-|-11---11-11--9--9-11-11\--|
Eb|-0----5-4-------0----|--------------------------|

eb|---------------------|--------------------------|
Bb|---------------------|--------------------------|
Gb|------------------14-|-13---13-13-11-11-13------|
Db|---------------------|---------------------14\--|
Ab|------------------12-|-11---11-11--9--9-11------|
Eb|-0----5-4-------0----|---------------------12\--|



[Verse 2]
    use PM throughout, same as before
eb|-------------------------|-------------------------|
Bb|-------------------------|-------------------------|
Gb|-------------------------|-------------------------|
Db|-------------------------|-------------------------|
Ab|-5--5--5--5--5--5--5--5--|-5--5--5--5--7--7--7--7--|
Eb|-3--3--3--3--3--3--3--3--|-3--3--3--3--5--5--5--5--|    play 4x



[Prechorus 2]
eb|--------------------|----------------------|--------------------|----------------------|
Bb|--------------------|----------------------|--------------------|----------------------|
Gb|--------------------|----------------------|--------------------|----------------------|
Db|--------------------|----------------------|--------------------|----------------------|
Ab|-7----7----7--5--4--|----4----4--4--4------|-7----7----7--5--4--|----4----4--4--4------|
Eb|-8----8----8--7--5--|----5----5--5--5------|-8----8----8--7--5--|----5----5--5--5------|

eb|----------------------|-------------------------|-------------------------|
Bb|----------------------|-------------------------|-------------------------|
Gb|----------------------|-------------------------|-------------------------|
Db|----------------------|-------------------------|-------------------------|
Ab|-7----7----7--7--7----|-9--9--9--9--9--9--9--9--|-9--9--9--9--9--9--9--9--|
Eb|-8----8----8--8--8----|-10-10-10-10-10-10-10-10-|-10-10-10-10-10-10-10-10-|



[Chorus 2]
    Guitar 1
eb|---------------------|---------------------|----------------------|---------------------|
Bb|---------------------|---------------------|----------------------|---------------------|
Gb|-1----1----1-1----1--|-----1----1--1--1----|-5----5----5-5-----5--|-----5----5--5--5----|
Db|-2----2----2-2----2--|-----2----2--2--2----|-5----5----5-5-----5--|-----5----5--5--5----|
Ab|-2----2----2-2----2--|-----2----2--2--2----|-3----3----3-3-----3--|-----3----3--3--3----|
Eb|-0----0----0-0----0--|-----0----0--0--0----|----------------------|---------------------|
  |
  | Guitar 2
eb|---------------------|---------------------|----------------------|---------------------|
Bb|---------------------|---------------------|----------------------|---------------------|
Gb|-13---13---13-13--13-|----13---13-13-13\12-|-12---12---12-12--12--|-----12---12-12-12---|
Db|---------------------|---------------------|----------------------|---------------------|
Ab|-11---11---11-11--11-|----11---11-11-11\10-|-10---10---10-10--10--|-----10---10-10-10---|
Eb|---------------------|---------------------|----------------------|---------------------|


    Guitar 1
eb|---------------------|---------------------|---------------------|---------------------|
Bb|---------------------|---------------------|---------------------|---------------------|
Gb|---------------------|---------------------|-7----7----7-7----7--|-----7----7--7--7----|
Db|-5----5----5-5----5--|-----5----5--5--5----|-7----7----7-7----7--|-----7----7--7--7----|
Ab|-5----5----5-5----5--|-----5----5--5--5----|-5----5----5-5----5--|-----5----5--5--5----|
Eb|-3----3----3-3----3--|-----3----3--3--3----|---------------------|---------------------|
  |
  | Guitar 2
eb|---------------------|---------------------|---------------------|---------------------|
Bb|---------------------|---------------------|---------------------|---------------------|
Gb|-12---12---12-12--12-|-----12---12-12-12---|-11--11---11-11--11--|----11---11-11-11----|
Db|---------------------|---------------------|---------------------|---------------------|
Ab|-10---10---10-10--10-|-----10---10-10-10---|--9---9----9--9---9--|-----9----9--9--9----|
Eb|---------------------|---------------------|---------------------|---------------------|

    Guitar 1
eb|---------------------|---------------------|----------------------|---------------------|
Bb|---------------------|---------------------|----------------------|---------------------|
Gb|-1----1----1-1----1--|-----1----1--1--1----|-5----5----5-5-----5--|-----5----5--5--5----|
Db|-2----2----2-2----2--|-----2----2--2--2----|-5----5----5-5-----5--|-----5----5--5--5----|
Ab|-2----2----2-2----2--|-----2----2--2--2----|-3----3----3-3-----3--|-----3----3--3--3----|
Eb|-0----0----0-0----0--|-----0----0--0--0----|----------------------|---------------------|
  |
  | Guitar 2
eb|---------------------|---------------------|----------------------|---------------------|
Bb|---------------------|---------------------|----------------------|---------------------|
Gb|-13---13---13-13--13-|----13---13-13-13\12-|-12---12---12-12--12--|-----12---12-12-12---|
Db|---------------------|---------------------|----------------------|---------------------|
Ab|-11---11---11-11--11-|----11---11-11-11\10-|-10---10---10-10--10--|-----10---10-10-10---|
Eb|---------------------|---------------------|----------------------|---------------------|


    Guitar 1
eb|---------------------|---------------------|---------------------|---------------------|
Bb|---------------------|---------------------|---------------------|---------------------|
Gb|---------------------|---------------------|-4----4----4-4----4--|-----4----4--4--4----|
Db|-5----5----5-5----5--|-----5----5--5--5----|-4----4----4-4----4--|-----4----4--4--4----|
Ab|-5----5----5-5----5--|-----5----5--5--5----|-2----2----2-2----2--|-----2----2--2--2----|
Eb|-3----3----3-3----3--|-----3----3--3--3----|---------------------|---------------------|
  |
  | Guitar 2
eb|---------------------|---------------------|---------------------|---------------------|
Bb|---------------------|---------------------|-12---12---12-12--12-|----12---12-12-12----|
Gb|-12---12---12-12--12-|-----12---12-12-12---|---------------------|---------------------|
Db|---------------------|---------------------|--9---9----9--9---9--|-----9----9--9--9----|
Ab|-10---10---10-10--10-|-----10---10-10-10---|---------------------|---------------------|
Eb|---------------------|---------------------|---------------------|---------------------|



[Solo]
eb|-0--0--0--0--0--0--0--0-|--0--0--0--0--0--0--0--0--|
Bb|-7--7----/8--8---/15-15-|----\12-12----10----10----|
Gb|------------------------|--------------------------|
Db|------------------------|--------------------------|  play 4x similarly
Ab|------------------------|--------------------------|
Eb|------------------------|--------------------------|



[Clean Bridge]
    Guitar 1
eb|---------0---------|-------0---------0---|---------0---------|-------0-------------|
Bb|-8--------------8--|--------------8------|-8--------------8--|--------------8--10--|
Gb|-------------------|---------------------|-------------------|---------------------|
Db|-------------------|---------------------|-------------------|---------------------|  play 2x
Ab|-------------------|---------------------|-------------------|---------------------|
Eb|-------------------|---------------------|-------------------|---------------------|
  |
  | Guitar 2
eb|---------0---------|---------0-----------|---------0---------|---------0-----------|
Bb|-------------1-----|---------------------|-------------1-----|---------------------|
Gb|-------------------|--------------0------|-------------------|--------------0------|
Db|-----2-------------|-----4----------4----|-----2-------------|-----4----------4----|
Ab|-3-----------------|-5-------------------|-3-----------------|-5-------------------|
Eb|-------------------|---------------------|-------------------|---------------------|



[Final Chorus]
    Guitar 1
eb|---------------------|---------------------|----------------------|---------------------|
Bb|---------------------|---------------------|----------------------|---------------------|
Gb|-1----1----1-1----1--|-----1----1--1--1----|-5----5----5-5-----5--|-----5----5--5--5----|
Db|-2----2----2-2----2--|-----2----2--2--2----|-5----5----5-5-----5--|-----5----5--5--5----|
Ab|-2----2----2-2----2--|-----2----2--2--2----|-3----3----3-3-----3--|-----3----3--3--3----|
Eb|-0----0----0-0----0--|-----0----0--0--0----|----------------------|---------------------|
  |
  | Guitar 2
eb|---------------------|---------------------|----------------------|---------------------|
Bb|---------------------|---------------------|----------------------|---------------------|
Gb|-13---13---13-13--13-|----13---13-13-13\12-|-12---12---12-12--12--|-----12---12-12-12---|
Db|---------------------|---------------------|----------------------|---------------------|
Ab|-11---11---11-11--11-|----11---11-11-11\10-|-10---10---10-10--10--|-----10---10-10-10---|
Eb|---------------------|---------------------|----------------------|---------------------|


    Guitar 1
eb|---------------------|---------------------|---------------------|---------------------|
Bb|---------------------|---------------------|---------------------|---------------------|
Gb|---------------------|---------------------|-7----7----7-7----7--|-----7----7--7--7----|
Db|-5----5----5-5----5--|-----5----5--5--5----|-7----7----7-7----7--|-----7----7--7--7----|
Ab|-5----5----5-5----5--|-----5----5--5--5----|-5----5----5-5----5--|-----5----5--5--5----|
Eb|-3----3----3-3----3--|-----3----3--3--3----|---------------------|---------------------|
  |
  | Guitar 2
eb|---------------------|---------------------|---------------------|---------------------|
Bb|---------------------|---------------------|---------------------|---------------------|
Gb|-12---12---12-12--12-|-----12---12-12-12---|-11--11---11-11--11--|----11---11-11-11----|
Db|---------------------|---------------------|---------------------|---------------------|
Ab|-10---10---10-10--10-|-----10---10-10-10---|--9---9----9--9---9--|-----9----9--9--9----|
Eb|---------------------|---------------------|---------------------|---------------------|

    Guitar 1
eb|---------------------|---------------------|----------------------|---------------------|
Bb|---------------------|---------------------|----------------------|---------------------|
Gb|-1----1----1-1----1--|-----1----1--1--1----|-5----5----5-5-----5--|-----5----5--5--5----|
Db|-2----2----2-2----2--|-----2----2--2--2----|-5----5----5-5-----5--|-----5----5--5--5----|
Ab|-2----2----2-2----2--|-----2----2--2--2----|-3----3----3-3-----3--|-----3----3--3--3----|
Eb|-0----0----0-0----0--|-----0----0--0--0----|----------------------|---------------------|
  |
  | Guitar 2
eb|---------------------|---------------------|----------------------|---------------------|
Bb|---------------------|---------------------|----------------------|---------------------|
Gb|-13---13---13-13--13-|----13---13-13-13\12-|-12---12---12-12--12--|-----12---12-12-12---|
Db|---------------------|---------------------|----------------------|---------------------|
Ab|-11---11---11-11--11-|----11---11-11-11\10-|-10---10---10-10--10--|-----10---10-10-10---|
Eb|---------------------|---------------------|----------------------|---------------------|


    Guitar 1
eb|---------------------|---------------------|---------------------|---------------------|
Bb|---------------------|---------------------|---------------------|---------------------|
Gb|---------------------|---------------------|-4----4----4-4----4--|-----4----4--4--4----|
Db|-5----5----5-5----5--|-----5----5--5--5----|-4----4----4-4----4--|-----4----4--4--4----|
Ab|-5----5----5-5----5--|-----5----5--5--5----|-2----2----2-2----2--|-----2----2--2--2----|
Eb|-3----3----3-3----3--|-----3----3--3--3----|---------------------|---------------------|
  |
  | Guitar 2
eb|---------------------|---------------------|---------------------|---------------------|
Bb|---------------------|---------------------|-12---12---12-12--12-|----12---12-12-12----|
Gb|-12---12---12-12--12-|-----12---12-12-12---|---------------------|---------------------|
Db|---------------------|---------------------|--9---9----9--9---9--|-----9----9--9--9----|
Ab|-10---10---10-10--10-|-----10---10-10-10---|---------------------|---------------------|
Eb|---------------------|---------------------|---------------------|---------------------|


[Ending]
eb|---------------------|--------------------------|
Bb|---------------------|--------------------------|
Gb|------------------14-|-13---13-13-11-11-13-13\--|
Db|---------------------|--------------------------|
Ab|------------------12-|-11---11-11--9--9-11-11\--|
Eb|-0----5-4-------0----|--------------------------|

eb|---------------------|--------------------------|
Bb|---------------------|--------------------------|
Gb|------------------14-|-13---13-13-11-11-13------|
Db|---------------------|---------------------14\--|
Ab|------------------12-|-11---11-11--9--9-11------|
Eb|-0----5-4-------0----|---------------------12\--|


************************************
Key

| /   slide up
| \   slide down

************************************
Suggest correction
Creating personal tab
Creating personal tab
You can edit any tab online and save it as your Personal.

You can edit, replace or remove any tab part or add personal notes – all changes will be seen only by you.

Personal tabs can be accessed anytime from any device, even offline.
Learn more »
Give kudos to tab author, rate the tab!
1 2 3 4 5
comments
print report bad tab
guest
You may want to rate the tab now too:
select rating
Wanna post a correction for this tab? Suggest correction