Oops, an error
Loading. Please wait.

Blister Tab

103 views 1 this week
no commentswrite comment
1 2 3 4 5
1 last vote to show rating
add to favorites
launch autoscroll
font size
0
reset
how to read this tab
guitar tuner
Autoscroll
slow
fast
+/-
esc
set tempo
stop
Help us to improve Ultimate-Guitar.com Take our survey!
×
Author
Difficulty
Tuning
intermediate
D# G# C# F# A# D#
Band: Red Sun Rising
Song: Blister 
Tuning: Half-step down-D#G#C#F#A#D#


[Chords]
    C  G  D   Em
d#|-0--3--2---0-----|
A#|-1--0--3---0-----|
F#|-0--0--2---0-----|
C#|-2--0--0---2-----|
G#|-3--2------2-----|
D#|----3------0-----|


[Intro]

d#|---------------------|
A#|---------------------|
F#|---------------------|
C#|--2--2---2--2--------|
G#|---------------------|
D#|0--0---0--0----------|(x4)
"Eye sores and catacombs"

d#|---------------------|
A#|---------------------|
F#|---------------------|
C#|--0--0---0--0--------|
G#|---------------------|
D#|3--3---3--3----------|(x2)
"Finger and give it a"

d#|-------------0--------|
A#|----------------0-----|
F#|-------0-----------0--|
C#|--2--2--2-------------|back to beginning
G#|---------2------------|
D#|0--0------------------|(go to chords 2nd time.)
"Spin now"

              C   G          G   D   C  
Cause there's no end to this wic-ked world
  C                  D          Em 
As long as there's blood on my hands.

(Back to Intro)
d#|---------------------|
A#|---------------------|
F#|---------------------|
C#|--2--2---2--2--------|
G#|---------------------|
D#|0--0---0--0----------|(x4)
"Faith is where profits lay
Symbols brand and segregate"
"Lonely souls rely on holy goals"

d#|---------------------|
A#|---------------------|
F#|---------------------|
C#|--0--0---0--0--------|
G#|---------------------|
D#|3--3---3--3----------|(x2)
"Cosequence drapes from our"
"With no relevance"

d#|-------------0--------|
A#|----------------0-----|
F#|-------0-----------0--|
C#|--2--2--2-------------|(Repeat Intro)
G#|---------2------------|
D#|0--0------------------|
    "necks now" "And no evidence
Nothing to preach about"

              C G          G    D  C 
And there's no end to this wic-ked world
  C                  D          Em 
As long as there's blood on my hands
              C G          G    D  C 
And there's no end to this wic-ked world
  C                  D          Em 
As long as there's blood on my hands


[Solo]
d#|--------------------------|
A#|12-10-8-7-8-5-7-3---------|
F#|--------------------------|
C#|--------------------------|
G#|--------------------------|
D#|--------------------------|

d#|---------------------------------------/12--|
A#|--------------------------------------------|
F#|-5-4-5-4--5-4-5-4---7-5-7-5---7-5-7-5-------|
C#|--------5--------5---------7---------7------|
G#|--------------------------------------------|
D#|--------------------------------------------|



              C G          G    D  C 
And there's no end to this wic-ked world
  C                  D          Em 
As long as there's blood on my hands
              C G          G    D  C 
And there's no end to this wic-ked world
  C                  D          Em 
As long as there's blood on my hands



Play this on every Em
d#|---------------------|
A#|---------------------|
F#|---------------------|
C#|0h2-2-2--0h2-2-2-2-2-|
G#|0h2-2-2--0h2-2-2-2-2-|
D#|0h0-0-0--0h0-0-0-0-0-|
End on a full upstroke Em

Em
And there's blood on my hands
Em
And there's blood on my hands
Em
And there's blood on my
Em
Mmm, blood on my
                  Em
Mmm, blood on my hands...


[Lyrics]
Eye sores and catacombs
Injustice is a place on the globe
Point your finger
And give it a spin now

Cause there's no end to this wicked world
As long as there's blood on our hands

Faith is where profits lay
Symbols brand and segregate
A silver consequence drapes from our necks now
Lonely souls rely on holy goals
With no relevance and no evidence
Nothing to preach about

And there's no end to this wicked world
As long as there's blood on my hands
And there's no end to this wicked world
As long as there's blood on my hands

And there's blood on my hands
And there's blood on my hands
And there's blood on my
Mmm, blood on my
Mmm, blood on my hands

And there's no end to this wicked world
As long as there's blood on my hands
And there's no end to this wicked world
As long as there's blood on my hands

And there's blood on my hands
And there's blood on my hands
And there's blood on my
Mmm, blood on my
There's blood on my hands
Suggest correction
Give kudos to tab author, rate the tab!
1 2 3 4 5
comments
print report bad tab
guest
You may want to rate the tab now too:
select rating
Wanna post a correction for this tab? Suggest correction