Oops, an error
Loading. Please wait.

The Otherside tab

version 2
version 2

Whole song

  • This tab has 2 guitars, but you can just play the ... Show more

Interactive

157 views 12 this week
no commentswrite comment
1 2 3 4 5
3 more votes to show rating
add to favorites
×
Save as Personal and add changes to this tab that will be seen only by you. Learn more ›
×
You can save this tab as Personal to edit and correct it or add notes. All changes will be seen only by you. Learn more »
launch autoscroll
font size
0
reset
how to read this tab
guitar tuner
edit
Autoscroll
slow
fast
+/-
esc
set tempo
stop
About this tab version
This tab has 2 guitars, but you can just play the rhythm part and it still sounds great. Was this info helpful? Yes No
-------------------------------------------------------------------------------
The Otherside – Red Sun Rising
-------------------------------------------------------------------------------
Tabbed by: WolfbainFox
Email: thomasgreene101@yahoo.com

Tuning: C#G#C#F#A#d# (Drop D HalfStep)

[Intro]
        Guitar 1 (Rhythm) [0:04]
d#|-----------------------------------------------------------------------|
A#|-----------------------------------------------------------------------|
F#|-----------------------------------------------------------------------|
C#|-----------------------------------------------------------------------|
G#|-----0-5/8-----8-----5----------0-5/8-----8-----5----------------------|
C#|---0---------9---9-5---5-3b---0---------9---9-5---5-3b-----------------|
                *bend the third fret to a microtone between E and F

        Guitar 2 (Lead) [0:04]
d#|-----------------------------------------------------------------------|
A#|-----------------------------------------------------------------------|
F#|-----------------------------------------------------------------------|
C#|-----------------------------------------------------------------------|
G#|-----------------------------------------------------------------------|
C#|-----------------------------------------------------------------------|

[Verse 1]
        Guitar 1 [0:14]
d#|-----------------------------------------------------------------------|
A#|-----------------------------------------------------------------------|
F#|-----------------------------------------------------------------------|x2
C#|-----------------------------------------------------------------------|
G#|-----0-5/8-----8-----5----------0-5/8-----8-----5----------------------|
C#|---0---------9---9-5---5-3b---0---------9---9-5---5-3b-----------------|

        Guitar 2 [0:14]
d#|-----------------------------------------------------------------------|
A#|-----------------------------------------------------------------------|
F#|------------------------------------10b--------------------------------|x2
C#|----------------------------------12----12-----------------------------|
G#|-------------------------------<12>------------------------------------|
C#|-----------------------------<12>--------------------------------------|
                *open harmonics on the first to 12’s (<12>)

[Pre-Chorus 1]
        Guitar 1 [0:33]
d#|----------------------------------------------------------------------------------|
A#|----------------------------------------------------------------------------------|
F#|---------5---------2~~---0-2--------5---------2~~---0-2-------5---7-7-7-7-7-7-7-7-|
C#|-------3---------0----------------3---------0-----0---------3-----5-5-5-5-5-5-5-5-|
G#|-----3---------0----------------3---------0---------------3-------5-5-5-5-5-5-5-5-|
C#|---3---------0----------------3---------0---------------3---------5-5-5-5-5-5-5-5-|
                *palm mute the F# power chord and slowly release                

        Guitar 2 [0:33]
d#|----------------------------------------------------------------------------------|
A#|----------------------------------------------------------------------------------|
F#|---------5---------2~~---0-2--------5---------2~~---0-2-------5---7-7-7-7-7-7-7-7-|
C#|-------3---------0----------------3---------0-----0---------3-----5-5-5-5-5-5-5-5-|
G#|-----3---------0----------------3---------0---------------3-------5-5-5-5-5-5-5-5-|
C#|---3---------0----------------3---------0---------------3---------5-5-5-5-5-5-5-5-|
                *nothing special for guitar 2 here, just doubling the riff              

[Chorus 1]
        Guitar 1 [0:47]
d#|-----------------------------------------------------------------------|
A#|---3---3---3-3-3-3-3---3---3-3-3-3-------------------------------------|
F#|---2---2---2-2-2-2-2---2---2-2-2-2-5---5---5-5-5-5-7---7---7-----------|
C#|---0---0---0-0-0-0-3---3---3-3-3-3-5---5---5-5-5-5-5---5---5-0-3-2-----|
G#|---0---0---0-0-0-0-3---3---3-3-3-3-3---3---3-3-3-3-5---5---5-0-3-2-----|
C#|---0---0---0-0-0-0-3---3---3-3-3-3-----------------5---5---5-0-3-2-----|
                *this part shows full chords, but simple power chords sound great

        Guitar 2 [0:47]
d#|-------------------------------------------------------------------------------------13--12--------|
A#|--15-15-15-15-15-17-17-17-13-13-13-13-13-13-13-13-13-13-13-13-13-13-13-13-12-12-12-----------15----|
F#|--14-14-14-14-14-14-14-14-14-14-14-14-14-14-14-14-12-12-12-12-12-12-12-12-12-12-12-14--14--14------|
C#|---------------------------------------------------------------------------------------------------|
G#|---------------------------------------------------------------------------------------------------|
C#|---------------------------------------------------------------------------------------------------|

        Guitar 1 [0:57]
d#|-----------------------------------------------------------------------|
A#|---3---3---3-3-3-3-3---3---3-3-3-3-------------------------------------|
F#|---2---2---2-2-2-2-2---2---2-2-2-2-5---5---5-5-5-5-7---7---7-7-7-7-----|
C#|---0---0---0-0-0-0-3---3---3-3-3-3-5---5---5-5-5-5-5---5---5-5-5-5-----|
G#|---0---0---0-0-0-0-3---3---3-3-3-3-3---3---3-3-3-3-5---5---5-5-5-5-----|
C#|---0---0---0-0-0-0-3---3---3-3-3-3-----------------5---5---5-5-5-5-----|

        Guitar 2 [0:57]
d#|---------------------------------------------------------------------------------------------------|
A#|--15-15-15-15-15-17-17-17-13-13-13-13-13-13-13-13-13-13-13-13-13-13-13-13-12-12-12-12-12-12-12-12--|
F#|--14-14-14-14-14-14-14-14-14-14-14-14-14-14-14-14-12-12-12-12-12-12-12-12-12-12-12-12-12-12-12-12--|
C#|---------------------------------------------------------------------------------------------------|
G#|---------------------------------------------------------------------------------------------------|
C#|---------------------------------------------------------------------------------------------------|


        Guitar 1 [1:06]
d#|-----------------------------------------------------------------------|
A#|-----------------------------------------------------------------------|
F#|---10-10-10-10-10-10-10-10-12-12-12-12-12------------------------------|
C#|---8--8--8--8--8--8--8--8--10-10-10-10-10-0-3-2-0----------------------|
G#|---8--8--8--8--8--8--8--8--10-10-10-10-10-0-3-2-0----------------------|
C#|---8--8--8--8--8--8--8--8--10-10-10-10-10-0-3-2-0----------------------|

        Guitar 2 [1:06]
d#|-----------------------------------------------------------------------|
A#|---10----10----10----10----8-----8-----8----6-5------------------------|
F#|------10----10----10----10----9-----9-----------7~~~~~~----------------|
C#|------------------------------------------7----------------------------|
G#|-----------------------------------------------------------------------|
C#|-----------------------------------------------------------------------|

[Instrumental]
        Guitar 1 [1:11]
d#|-----------------------------------------------------------------------|
A#|-----------------------------------------------------------------------|
F#|-----------------------------------------------------------------------|
C#|-----------------------------------------------------------------------|
G#|-----0-5/8-----8-----5----------0-5/8-----8-----5----------------------|
C#|---0---------9---9-5---5-3b---0---------9---9-5---5-3b-----------------|

        Guitar 2 [1:11]
d#|-----------------------------------------------------------------------|
A#|---3-------------------------------------------------------------------|
F#|---2-------------------------------------------------------------------|
C#|---0-------------------------------------------------------------------|
G#|---0-------------------------------------------------------------------|
C#|---0-------------------------------------------------------------------|

[Verse 2]
        Guitar 1 [1:21]
d#|-----------------------------------------------------------------------|
A#|-----------------------------------------------------------------------|
F#|-----------------------------------------------------------------------|x2
C#|-----------------------------------------------------------------------|
G#|-----0-5/8-----8-----5----------0-5/8-----8-----5----------------------|
C#|---0---------9---9-5---5-3b---0---------9---9-5---5-3b-----------------|

        Guitar 2 [1:21]
d#|-----------------------------------------------------------------------|
A#|-----------------------------------------------------------------------|
F#|------------------------------------10b--------------------------------|x2
C#|----------------------------------12----12-----------------------------|
G#|-------------------------------<12>------------------------------------|
C#|-----------------------------<12>--------------------------------------|

[Pre-Chorus 2]
        Guitar 1 [1:40]
d#|----------------------------------------------------------------------------------|
A#|----------------------------------------------------------------------------------|
F#|---------5---------2~~---0-2--------5---------2~~---0-2-------5---7-7-7-7-7-7-7-7-|
C#|-------3---------0----------------3---------0-----0---------3-----5-5-5-5-5-5-5-5-|
G#|-----3---------0----------------3---------0---------------3-------5-5-5-5-5-5-5-5-|
C#|---3---------0----------------3---------0---------------3---------5-5-5-5-5-5-5-5-|          
        Guitar 2 [1:40]
d#|----------------------------------------------------------------------------------|
A#|----------------------------------------------------------------------------------|
F#|---------10b------------------------10b-----------------------10b-----------------|
C#|-------12----12-------------------12----12------------------12----12--------------|
G#|-----12-------------------------12------------------------12----------------------|
C#|---12-------------------------12------------------------12------------------------|

[Chorus 2]
        Guitar 1 [1:55]
d#|-----------------------------------------------------------------------|
A#|---3---3---3-3-3-3-3---3---3-3-3-3-------------------------------------|
F#|---2---2---2-2-2-2-2---2---2-2-2-2-5---5---5-5-5-5-7---7---7-----------|
C#|---0---0---0-0-0-0-3---3---3-3-3-3-5---5---5-5-5-5-5---5---5-0-3-2-----|
G#|---0---0---0-0-0-0-3---3---3-3-3-3-3---3---3-3-3-3-5---5---5-0-3-2-----|
C#|---0---0---0-0-0-0-3---3---3-3-3-3-----------------5---5---5-0-3-2-----|

        Guitar 2 [1:55]
d#|-------------------------------------------------------------------------------------13--12--------|
A#|--15-15-15-15-15-17-17-17-13-13-13-13-13-13-13-13-13-13-13-13-13-13-13-13-12-12-12-----------15----|
F#|--14-14-14-14-14-14-14-14-14-14-14-14-14-14-14-14-12-12-12-12-12-12-12-12-12-12-12-14--14--14------|
C#|---------------------------------------------------------------------------------------------------|
G#|---------------------------------------------------------------------------------------------------|
C#|---------------------------------------------------------------------------------------------------|


        Guitar 1 [2:04]
d#|-----------------------------------------------------------------------|
A#|---3---3---3-3-3-3-3---3---3-3-3-3-------------------------------------|
F#|---2---2---2-2-2-2-2---2---2-2-2-2-5---5---5-5-5-5-7---7---7-7-7-7-----|
C#|---0---0---0-0-0-0-3---3---3-3-3-3-5---5---5-5-5-5-5---5---5-5-5-5-----|
G#|---0---0---0-0-0-0-3---3---3-3-3-3-3---3---3-3-3-3-5---5---5-5-5-5-----|
C#|---0---0---0-0-0-0-3---3---3-3-3-3-----------------5---5---5-5-5-5-----|

        Guitar 2 [2:04]
d#|---------------------------------------------------------------------------------------------------|
A#|--15-15-15-15-15-17-17-17-13-13-13-13-13-13-13-13-13-13-13-13-13-13-13-13-12-12-12-12-12-12-12-12--|
F#|--14-14-14-14-14-14-14-14-14-14-14-14-14-14-14-14-12-12-12-12-12-12-12-12-12-12-12-12-12-12-12-12--|
C#|---------------------------------------------------------------------------------------------------|
G#|---------------------------------------------------------------------------------------------------|
C#|---------------------------------------------------------------------------------------------------|


        Guitar 1 [2:14]
d#|-----------------------------------------------------------------------|
A#|-----------------------------------------------------------------------|
F#|---10-10-10-10-10-10-10-10-12-12-12-12-12-12-12\-----------------------|
C#|---8--8--8--8--8--8--8--8--10-10-10-10-10-10-10\-----------------------|
G#|---8--8--8--8--8--8--8--8--10-10-10-10-10-10-10\-----------------------|
C#|---8--8--8--8--8--8--8--8--10-10-10-10-10-10-10\-----------------------|

        Guitar 2 [2:14]
d#|-----------------------------------------------------------------------|
A#|---10----10----10----10----8-----8-----8-----8-------------------------|
F#|------10----10----10----10----9-----9-----9-----9----------------------|
C#|-----------------------------------------------------------------------|
G#|-----------------------------------------------------------------------|
C#|-----------------------------------------------------------------------|

[Bridge]
        Guitar 1 [2:19]
d#|-----------------------------------------------------------------------|
A#|-----------------------------------------------------------------------|
F#|-----------------------------------------------------------------------|x2
C#|------------------5---5-x-3---x-3--------------------5---x-3---0-3-----|
G#|---------9~~------5---5-x-3---x-3---------9~~--------5---x-3---0-3-----|
C#|---0-9-10----10-9-5---5-x-3---x-3---0-9-10----10-9-0-5---x-3---0-3-----|

        Guitar 2 [2:19]
d#|-----------------------------------------------------------13b~~-------|
A#|---------13~~-----12~~----10~~------------13~~-------15~~--------------|
F#|-------10-------------------------------10-----------------------------|x2
C#|-----12-------------------------------12-------------------------------|
G#|-----------------------------------------------------------------------|
C#|---0--------------------------------0----------------------------------|


        Guitar 1 [2:38]
d#|-----------------------------------------------------------------------|
A#|-----------------------------------------------------------------------|
F#|-----------------------------------------------------------------------|
C#|---3-3-3-3-3-3-3-3-5-5-5-5-5-5-5-5-3-3-3-3-3-3-3-3-5-5-5-5-5-5-5-------|
G#|---3-3-3-3-3-3-3-3-5-5-5-5-5-5-5-5-3-3-3-3-3-3-3-3-5-5-5-5-5-5-5-------|
C#|---3-3-3-3-3-3-3-3-5-5-5-5-5-5-5-5-3-3-3-3-3-3-3-3-5-5-5-5-5-5-5-------|

        Guitar 2 [2:38]
d#|---13~~13~~13~~13~~10~~10~~10~~10~~13~~13~~13~~13~~15~~15~~15~~15~~----|
A#|-----------------------------------------------------------------------|
F#|-----------------------------------------------------------------------|
C#|-----------------------------------------------------------------------|
G#|-----------------------------------------------------------------------|
C#|-----------------------------------------------------------------------|

[Chorus 3]
        Guitar 1 [2:48]
d#|-----------------------------------------------------------------------|
A#|---3---3---3-3-3-3-3---3---3-3-3-3-------------------------------------|
F#|---2---2---2-2-2-2-2---2---2-2-2-2-5---5---5-5-5-5-7---7---7-----------|
C#|---0---0---0-0-0-0-3---3---3-3-3-3-5---5---5-5-5-5-5---5---5-0-3-2-----|
G#|---0---0---0-0-0-0-3---3---3-3-3-3-3---3---3-3-3-3-5---5---5-0-3-2-----|
C#|---0---0---0-0-0-0-3---3---3-3-3-3-----------------5---5---5-0-3-2-----|

        Guitar 2 [2:48]
d#|-------------------------------------------------------------------------------------13--12--------|
A#|--15-15-15-15-15-17-17-17-13-13-13-13-13-13-13-13-13-13-13-13-13-13-13-13-12-12-12-----------15----|
F#|--14-14-14-14-14-14-14-14-14-14-14-14-14-14-14-14-12-12-12-12-12-12-12-12-12-12-12-14--14--14------|
C#|---------------------------------------------------------------------------------------------------|
G#|---------------------------------------------------------------------------------------------------|
C#|---------------------------------------------------------------------------------------------------|


        Guitar 1 [2:57]
d#|-----------------------------------------------------------------------|
A#|---3---3---3-3-3-3-3---3---3-3-3-3-------------------------------------|
F#|---2---2---2-2-2-2-2---2---2-2-2-2-5---5---5-5-5-5-7---7---7-7-7-7-----|
C#|---0---0---0-0-0-0-3---3---3-3-3-3-5---5---5-5-5-5-5---5---5-5-5-5-----|
G#|---0---0---0-0-0-0-3---3---3-3-3-3-3---3---3-3-3-3-5---5---5-5-5-5-----|
C#|---0---0---0-0-0-0-3---3---3-3-3-3-----------------5---5---5-5-5-5-----|

        Guitar 2 [2:57]
d#|---------------------------------------------------------------------------------------------------|
A#|--15-15-15-15-15-17-17-17-13-13-13-13-13-13-13-13-13-13-13-13-13-13-13-13-12-12-12-12-12-12-12-12--|
F#|--14-14-14-14-14-14-14-14-14-14-14-14-14-14-14-14-12-12-12-12-12-12-12-12-12-12-12-12-12-12-12-12--|
C#|---------------------------------------------------------------------------------------------------|
G#|---------------------------------------------------------------------------------------------------|
C#|---------------------------------------------------------------------------------------------------|


        Guitar 1 [3:07]
d#|-----------------------------------------------------------------------|
A#|-----------------------------------------------------------------------|
F#|---10-10-10-10-10-10-10-10-12-12-12-12-12-12-12-12---------------------|
C#|---8--8--8--8--8--8--8--8--10-10-10-10-10-10-10-10---------------------|
G#|---8--8--8--8--8--8--8--8--10-10-10-10-10-10-10-10---------------------|
C#|---8--8--8--8--8--8--8--8--10-10-10-10-10-10-10-10---------------------|

        Guitar 2 [3:11]
d#|-----------------------------------------------------------------------|
A#|---10----10----10----10----8-----8-----8-----8-------------------------|
F#|------10----10----10----10----9-----9-----9-----9----------------------|
C#|-----------------------------------------------------------------------|
G#|-----------------------------------------------------------------------|
C#|-----------------------------------------------------------------------|


        Guitar 1 [3:11]
d#|-----------------------------------------------------------------------|
A#|-----------------------------------------------------------------------|
F#|---10-10-10-10-10-10-10-10-12-12-12-12-12------------------------------|
C#|---8--8--8--8--8--8--8--8--10-10-10-10-10-0-3-2-0----------------------|
G#|---8--8--8--8--8--8--8--8--10-10-10-10-10-0-3-2-0----------------------|
C#|---8--8--8--8--8--8--8--8--10-10-10-10-10-0-3-2-0----------------------|

        Guitar 2 [3:11]
d#|-----------------------------------------------------------------------|
A#|---10----10----10----10----8-----8-----8----6-5------------------------|
F#|------10----10----10----10----9-----9-----------7~~~~~~----------------|
C#|------------------------------------------7----------------------------|
G#|-----------------------------------------------------------------------|
C#|-----------------------------------------------------------------------|

[Outro]
        Guitar 1 [3:16]
d#|-----------------------------------------------------------------------|
A#|-----------------------------------------------------------------------|
F#|---------------------------------------------------------2-------------|
C#|---------------------------------------------------------0-------------|
G#|-----0-5/8-----8-----5----------0-5/8-----8-----5--------0-------------|
C#|---0---------9---9-5---5-3b---0---------9---9-5---5-3b---0-------------|
                *cadenza on the last part of the riff

        Guitar 2 [3:16]
d#|-----------------------------------------------------------------------|
A#|---3-------------------------------------------------------------------|
F#|---2-------------------------------------------------------------------|
C#|---0-------------------------------------------------------------------|
G#|---0-------------------------------------------------------------------|
C#|---0-------------------------------------------------------------------|



************************************

| /  Slide up
| b  Bend
| ~  Vibrato
| \  Slide down
| x  Dead note
 

************************************

            
            
Suggest correction
Creating personal tab
Creating personal tab
You can edit any tab online and save it as your Personal.

You can edit, replace or remove any tab part or add personal notes – all changes will be seen only by you.

Personal tabs can be accessed anytime from any device, even offline.
Learn more »
Give kudos to tab author, rate the tab!
1 2 3 4 5
comments
print report bad tab
guest
You may want to rate the tab now too:
select rating
Wanna post a correction for this tab? Suggest correction