Oops, an error
Loading. Please wait.

Fuck tab

by Red Vox
310 views 9 this week
no commentswrite comment
1 2 3 4 5
2 more votes to show rating
add to favorites
×
Save as Personal and add changes to this tab that will be seen only by you. Learn more ›
×
You can save this tab as Personal to edit and correct it or add notes. All changes will be seen only by you. Learn more »
launch autoscroll
font size
0
reset
how to read this tab
guitar tuner
edit
Autoscroll
slow
fast
+/-
esc
set tempo
stop
Band: Red Vox
Song: Fuck
Tuning: Drop D
Tabbed by: Peryitex

[Intro]
e|-----------------------|-----------------------------|-----------------------|--------------------------|
B|-----------------------|-----------------------------|-----------------------|--------------------------|
G|-----------------------|-----------------------------|-----------------------|--------------------------|
D|-7--------0---3--------|-7-7---7-7---0---5-----3-----|/7--------0---3--------|-7-7---7-7---0---3--------|
A|-7--------0---3--------|-7-7---7-7---0---5-----3-----|/7--------0---3--------|-7-7---7-7---0---3--------|
D|-7--------0---3--------|-7-7---7-7---0---5-----3-----|/7--------0---3--------|-7-7---7-7---0---3--------|

[Verse]
e|---------------------------------|---------------------------------|
B|---------------------------------|---------------------------------|
G|---------------------------------|---------------------------------|
D|---------------------------------|---------------------------------| 3x
A|-0---0---0---0---0---2---3---0---|-5---5---5---5---5---3---2---3---|
D|-0---0---0---0---0---2---3---0---|-5---5---5---5---5---3---2---3---|

   PM-------------------------------------------------------------|

(Slowy reduce the palm muting)
e|---------------------------------|---------------------------------|
B|---------------------------------|---------------------------------|
G|---------------------------------|---------------------------------|
D|---------------------------------|-5---5---5---5---5---5---6---6---| 
A|-0---0---0---0---0---2---3---0---|-5---5---5---5---5---5---6---6---|
D|-0---0---0---0---0---2---3---0---|-5---5---5---5---5---5---6---6---|

   PM------------------------------|

e|---------------------------------|---------------------------------|
B|---------------------------------|-----10--10--10--10--10--10--10--|
G|---------------------------------|-----12b-12b-12b-12b-12b-12b-12b-|
D|---------------------------------|---------------------------------|
A|---------------------------------|---------------------------------|
D|---------------------------------|---------------------------------|

[Chorus]
e|-----------------------|-----------------------------|-----------------------|--------------------------|
B|-----------------------|-----------------------------|-----------------------|--------------------------|
G|-----------------------|-----------------------------|-----------------------|--------------------------|
D|-7--------0---3--------|-7-7---7-7---0---5-----3-----|/7--------0---3--------|-7-7---7-7---0---3--------| 2x
A|-7--------0---3--------|-7-7---7-7---0---5-----3-----|/7--------0---3--------|-7-7---7-7---0---3--------|
D|-7--------0---3--------|-7-7---7-7---0---5-----3-----|/7--------0---3--------|-7-7---7-7---0---3--------|

(The 2nd time you play the chorus riff, this is played in the background:)
e|-----------------------|
B|-10-------12--13-------|
G|-12b------14b-15b------|
D|-----------------------|
A|-----------------------|
D|-----------------------|

[Verse]
e|---------------------------------|---------------------------------|
B|---------------------------------|---------------------------------|
G|---------------------------------|---------------------------------|
D|---------------------------------|---------------------------------| 3x
A|-0---0---0---0---0---2---3---0---|-5---5---5---5---5---3---2---3---|
D|-0---0---0---0---0---2---3---0---|-5---5---5---5---5---3---2---3---|

   PM-------------------------------------------------------------|

(Slowy reduce the palm muting)
e|---------------------------------|---------------------------------|
B|---------------------------------|---------------------------------|
G|---------------------------------|---------------------------------|
D|---------------------------------|-5---5---5---5---5---5---6---6---| 
A|-0---0---0---0---0---2---3---0---|-5---5---5---5---5---5---6---6---|
D|-0---0---0---0---0---2---3---0---|-5---5---5---5---5---5---6---6---|

   PM------------------------------|

e|---------------------------------|---------------------------------|
B|---------------------------------|-----10--10--10--10--10--10--10--|
G|---------------------------------|-----12b-12b-12b-12b-12b-12b-12b-|
D|---------------------------------|---------------------------------|
A|---------------------------------|---------------------------------|
D|---------------------------------|---------------------------------|

[Chorus]
e|-----------------------|-----------------------------|-----------------------|--------------------------|
B|-----------------------|-----------------------------|-----------------------|--------------------------|
G|-----------------------|-----------------------------|-----------------------|--------------------------|
D|-7--------0---3--------|-7-7---7-7---0---5-----3-----|/7--------0---3--------|-7-7---7-7---0---3--------| 2x
A|-7--------0---3--------|-7-7---7-7---0---5-----3-----|/7--------0---3--------|-7-7---7-7---0---3--------|
D|-7--------0---3--------|-7-7---7-7---0---5-----3-----|/7--------0---3--------|-7-7---7-7---0---3--------|

e|-----------------------|
B|-10-------12--13-------|
G|-12b------14b-15b------|
D|-----------------------|
A|-----------------------|
D|-----------------------|

[Verse]
e|---------------------------------|---------------------------------|
B|---------------------------------|---------------------------------|
G|---------------------------------|---------------------------------|
D|---------------------------------|---------------------------------| 3x
A|-0---0---0---0---0---2---3---0---|-5---5---5---5---5---3---2---3---|
D|-0---0---0---0---0---2---3---0---|-5---5---5---5---5---3---2---3---|

   PM-------------------------------------------------------------|

(Slowy reduce the palm muting)
e|---------------------------------|---------------------------------|
B|---------------------------------|---------------------------------|
G|---------------------------------|---------------------------------|
D|---------------------------------|-5---5---5---5---5---5---6---6---| 
A|-0---0---0---0---0---2---3---0---|-5---5---5---5---5---5---6---6---|
D|-0---0---0---0---0---2---3---0---|-5---5---5---5---5---5---6---6---|

   PM------------------------------|

e|---------------------------------|---------------------------------|
B|---------------------------------|-----10--10--10--10--10--10--10--|
G|---------------------------------|-----12b-12b-12b-12b-12b-12b-12b-|
D|---------------------------------|---------------------------------|
A|---------------------------------|---------------------------------|
D|---------------------------------|---------------------------------|

[Guitar Solo]
 (Rhythm guitar:) 
e|-----------------------|-----------------------------|-----------------------|--------------------------|
B|-----------------------|-----------------------------|-----------------------|--------------------------|
G|-----------------------|-----------------------------|-----------------------|--------------------------|
D|-7--------0---3--------|-7-7---7-7---0---5-----3-----|/7--------0---3--------|-7-7---7-7---0---3--------| 2x
A|-7--------0---3--------|-7-7---7-7---0---5-----3-----|/7--------0---3--------|-7-7---7-7---0---3--------|
D|-7--------0---3--------|-7-7---7-7---0---5-----3-----|/7--------0---3--------|-7-7---7-7---0---3--------|
  
 (Lead guitar:) 
e|-----------------------------|-----------------------------------------|
B|-----------------------------|-----------------------------------------|
G|-5-----------7---9-----------|-9-10-9----9-----------------------------|
D|-----------------------------|--------12---12-10-9-9h10p9--------------|
A|-----------------------------|----------------------------12---7-------|
D|-----------------------------|-----------------------------------------|
 
e|-----------------------------|-----------------------------------------|
B|-----------------------------|-----------------------------------------|
G|-----------------------------|-----------------------------------------|
D|-5-----------7---9-----------|-9-10-9----9-----------------------------|
A|-----------------------------|--------12---12-10-9-9h10p9-7------------|
D|-----------------------------|---------------------------------9-------|
 

e|-----------------------------|-----------------------------|
B|-----------------------------|-----------------------------|
G|-----------------------------|-7---6-------7---9-----------|
D|-----------------------------|-----------------------------|
E|-7---------------------------|-----------------------------|
E|-----------------------------|-----------------------------|

e|-----------------------------|-----------------------------|
B|-----------------------------|-----------------------------|
G|-----------------------------|-----------------------------|
D|-----------------------------|-----------------------------|
A|-----------------------------|-5---4-------5---7-----------|
E|-7---------------------------|-----------------------------|
 

e|-12b---------12--------------|-12-13-12----12----------------12-13-15-12-13-15-|
B|-----------------------------|----------15----15-13-12-13-15-------------------|
G|-----------------12----------|-------------------------------------------------|
D|-----------------------------|-------------------------------------------------|
A|-----------------------------|-------------------------------------------------|
D|-----------------------------|-------------------------------------------------|
 
e|-----------------------------|-------------------------------------------|
B|-12b---------12--------------|-------------------------------------------|
G|-----------------9-----------|-9-10-9----9---------------9-10-12-9-10-12-|
D|-----------------------------|--------12---12-10-9-10-12-----------------|
A|-----------------------------|-------------------------------------------|
D|-----------------------------|-------------------------------------------|


e|-15b---------15--15b---------|-17-15-------------------------15----15--------|
B|-----------------------------|-------17-15-17-15-------15-17----17-----------|
G|-----------------------------|-------------------17-16-----------------------|
D|-----------------------------|-----------------------------------------------|
A|-----------------------------|-----------------------------------------------|
D|-----------------------------|-----------------------------------------------|

e|-----------------------------|-------------------------------15--------------|
B|-12b----r----13--12b----r----|-17-15-17-15-17-15----------------17-17--------|
G|-----------------------------|-------------------17-16-16-17-----------------|
D|-----------------------------|-----------------------------------------------|
A|-----------------------------|-----------------------------------------------|
D|-----------------------------|-----------------------------------------------|

(Song ends on:)
e|-----------------------------|
B|-----------------------------|
G|-----------------------------|
D|-0---------------------------|
A|-0---------------------------|
D|-0---------------------------|

************************************

| h   Hammer-on
| p   Pull-off
| b   Bend
| r   Release
| /   Slide up
| PM  Palm mute

************************************

            
            
Suggest correction
Creating personal tab
Creating personal tab
You can edit any tab online and save it as your Personal.

You can edit, replace or remove any tab part or add personal notes – all changes will be seen only by you.

Personal tabs can be accessed anytime from any device, even offline.
Learn more »
Give kudos to tab author, rate the tab!
1 2 3 4 5
comments
print report bad tab
guest
You may want to rate the tab now too:
select rating
Wanna post a correction for this tab? Suggest correction