Oops, an error
Loading. Please wait.

There She Goes Tab

292 views 9 this week
2 commentsread comments
1 2 3 4 5
2 more votes to show rating
add to favorites
launch autoscroll
font size
0
reset
how to read this tab
guitar tuner
Autoscroll
slow
fast
+/-
esc
set tempo
stop
Help us to improve Ultimate-Guitar.com Take our survey!
×
Author
Difficulty
novice
Band: Red Vox
Song: There She Goes
Tuning: Standard
Tabbed By: Peryitex


[Intro & Verse]

e|-----------------|-----------------|-----------------|-----------------|
B|-----------------|-----------------|-----------------|-----------------|
G|-----------------|-----------------|-----------------|-----------------|
D|-----------------|---------0-0-2-2-|-----------------|---------0-0-2-2-|
A|---------0-0-2-2-|-0-0-2-2---------|---------0-0-2-2-|-0-0-2-2---------|
E|-0-0-3-4---------|-----------------|---0-3-4---------|-----------------|

   PM-----------------------------|      PM---------------------------|  (x2)

e|-----------------|-----------------|-----------------|-----------------|
B|-----------------|-----------------|-----------------|-----------------|
G|-----------------|---------7-7-9-9-|-----------------|---------7-7-9-9-|
D|-----5-6-7-7-9-9-|-7-7-9-9---------|-----5-6-7-7-9-9-|-7-7-9-9---------|
A|-7-7-------------|-----------------|---7-------------|-----------------|
E|-----------------|-----------------|-----------------|-----------------|

   PM-----------------------------|      PM---------------------------|  



e|-----------------|-----------------|-----------------|-----------------|
B|-----------------|-----------------|-----------------|-----------------|
G|-----------------|-----------------|-----------------|-----------------|
D|-----------------|---------0-0-2-2-|-----------------|---------0-0-2-0-|
A|---------0-0-2-2-|-0-0-2-2---------|---------0-0-2-2-|-0-0-2-2---------|
E|-0-0-3-4---------|-----------------|---0-3-4---------|-----------------|

   PM-----------------------------|      PM---------------------------|              

e|-----------------|-----------------|-----------------|-----------------|
B|-----------------|-----------------|-----------------|-----------------|
G|-----------------|---------7-7-9-9-|-----------------|---------7-7-9-7-|
D|-----5-6-7-7-9-9-|-7-7-9-9---------|-----5-6-7-7-9-9-|-7-7-9-9---------|
A|-7-7-------------|-----------------|---7-------------|-----------------|
E|-----------------|-----------------|-----------------|-----------------|

   PM-----------------------------|      PM---------------------------|  

[Chorus]

  [D]           [G]           [A]           [D]

e|-2-----2---2---3-----3---3-----------------2---2---|
B|-3-----3---3---3-----3---3---2-----2---2---3---3---|
G|-2-----2---2---0-----0---0---2-----2---2---2---2---|
D|-0-----0---0---0-----0---0---2-----2---2---0---0---|
A|---------------2-----2---2---0-----0---0-----------|
E|---------------3-----3---3-------------------------|

e|---------------------------------------------------|
B|-------10------8--7------7------3------------------|
G|-7-------------------7-------6-----6---------7-----|
D|-----------------------------------------------7---|
A|-------------------------------------------------9-|
E|---------------------------------------------------|


  [D]           [G]           [F#]          [A]

e|-2-----2---2---3-----3---3---2-----2---2-----------|
B|-3-----3---3---3-----3---3---2-----2---2---2---2---|
G|-2-----2---2---0-----0---0---3-----3---3---2---2---|
D|-0-----0---0---0-----0---0---4-----4---4---2---2---|
A|---------------2-----2---2---4-----4---4---0---0---|
E|---------------3-----3---3---2-----2---2-----------|

e|---------------------------------------------------|
B|-------10------8--7------7------3----------7---7---|
G|-7-------------------7-------4-----4-------9b--9b--|
D|---------------------------------------------------|
A|---------------------------------------------------|
E|---------------------------------------------------|


  [D]           [G]           [A]           [D]

e|-2-----2---2---3-----3---3-----------------2---2---|
B|-3-----3---3---3-----3---3---2-----2---2---3---3---|
G|-2-----2---2---0-----0---0---2-----2---2---2---2---|
D|-0-----0---0---0-----0---0---2-----2---2---0---0---|
A|---------------2-----2---2---0-----0---0-----------|
E|---------------3-----3---3-------------------------|

e|---------------------------------------------------|
B|-------10------8--7------7------3------------------|
G|-7-------------------7-------6-----6---------7-----|
D|-----------------------------------------------7---|
A|-------------------------------------------------9-|
E|---------------------------------------------------|


  [D]           [G]           [F#]          [A]

e|-2-----2---2---3-----3---3---2-----2---2-----------|
B|-3-----3---3---3-----3---3---2-----2---2-----2---2-|
G|-2-----2---2---0-----0---0---3-----3---3-----2---2-|
D|-0-----0---0---0-----0---0---4-----4---4-----2---2-|
A|---------------2-----2---2---4-----4---4-----0---0-|
E|---------------3-----3---3---2-----2---2-----------|


e|---------------------------------------------------|
B|-------10------8--7------7------3----------10--10--|
G|-7-------------------7-------4-----4-------12b-12b-|
D|---------------------------------------------------|
A|---------------------------------------------------|
E|---------------------------------------------------|


[Verse]

e|-----------------|-----------------|-----------------|-----------------|
B|-----------------|-----------------|-----------------|-----------------|
G|-----------------|-----------------|-----------------|-----------------|
D|-----------------|---------0-0-2-2-|-----------------|---------0-0-2-2-|
A|---------0-0-2-2-|-0-0-2-2---------|---------0-0-2-2-|-0-0-2-2---------|
E|-0-0-3-4---------|-----------------|---0-3-4---------|-----------------|

   PM-----------------------------|      PM---------------------------|  (x2)

e|-----------------|-----------------|-----------------|-----------------|
B|-----------------|-----------------|-----------------|-----------------|
G|-----------------|---------7-7-9-9-|-----------------|---------7-7-9-9-|
D|-----5-6-7-7-9-9-|-7-7-9-9---------|-----5-6-7-7-9-9-|-7-7-9-9---------|
A|-7-7-------------|-----------------|---7-------------|-----------------|
E|-----------------|-----------------|-----------------|-----------------|

   PM-----------------------------|      PM---------------------------|  



e|-----------------|-----------------|-----------------|-----------------|
B|-----------------|-----------------|-----------------|-----------------|
G|-----------------|-----------------|-----------------|-----------------|
D|-----------------|---------0-0-2-2-|-----------------|---------0-0-2-0-|
A|---------0-0-2-2-|-0-0-2-2---------|---------0-0-2-2-|-0-0-2-2---------|
E|-0-0-3-4---------|-----------------|---0-3-4---------|-----------------|

   PM-----------------------------|      PM---------------------------|              

e|-----------------|-----------------|-----------------|-----------------|
B|-----------------|-----------------|-----------------|-----------------|
G|-----------------|---------7-7-9-9-|-----------------|---------7-7-9-7-|
D|-----5-6-7-7-9-9-|-7-7-9-9---------|-----5-6-7-7-9-9-|-7-7-9-9---------|
A|-7-7-------------|-----------------|---7-------------|-----------------|
E|-----------------|-----------------|-----------------|-----------------|

   PM-----------------------------|      PM---------------------------|  

[Chorus]

  [D]           [G]           [A]           [D]

e|-2-----2---2---3-----3---3-----------------2---2---|
B|-3-----3---3---3-----3---3---2-----2---2---3---3---|
G|-2-----2---2---0-----0---0---2-----2---2---2---2---|
D|-0-----0---0---0-----0---0---2-----2---2---0---0---|
A|---------------2-----2---2---0-----0---0-----------|
E|---------------3-----3---3-------------------------|

e|---------------------------------------------------|
B|-------10------8--7------7------3------------------|
G|-7-------------------7-------6-----6---------7-----|
D|-----------------------------------------------7---|
A|-------------------------------------------------9-|
E|---------------------------------------------------|


  [D]           [G]           [F#]          [A]

e|-2-----2---2---3-----3---3---2-----2---2-----------|
B|-3-----3---3---3-----3---3---2-----2---2---2---2---|
G|-2-----2---2---0-----0---0---3-----3---3---2---2---|
D|-0-----0---0---0-----0---0---4-----4---4---2---2---|
A|---------------2-----2---2---4-----4---4---0---0---|
E|---------------3-----3---3---2-----2---2-----------|

e|---------------------------------------------------|
B|-------10------8--7------7------3----------7---7---|
G|-7-------------------7-------4-----4-------9b--9b--|
D|---------------------------------------------------|
A|---------------------------------------------------|
E|---------------------------------------------------|


  [D]           [G]           [A]           [D]

e|-2-----2---2---3-----3---3-----------------2---2---|
B|-3-----3---3---3-----3---3---2-----2---2---3---3---|
G|-2-----2---2---0-----0---0---2-----2---2---2---2---|
D|-0-----0---0---0-----0---0---2-----2---2---0---0---|
A|---------------2-----2---2---0-----0---0-----------|
E|---------------3-----3---3-------------------------|

e|---------------------------------------------------|
B|-------10------8--7------7------3------------------|
G|-7-------------------7-------6-----6---------7-----|
D|-----------------------------------------------7---|
A|-------------------------------------------------9-|
E|---------------------------------------------------|


  [D]           [G]           [F#]          [A]

e|-2-----2---2---3-----3---3---2-----2---2-----------|
B|-3-----3---3---3-----3---3---2-----2---2-----2---2-|
G|-2-----2---2---0-----0---0---3-----3---3-----2---2-|
D|-0-----0---0---0-----0---0---4-----4---4-----2---2-|
A|---------------2-----2---2---4-----4---4-----0---0-|
E|---------------3-----3---3---2-----2---2-----------|


e|---------------------------------------------------|
B|-------10------8--7------7------3----------10--10--|
G|-7-------------------7-------4-----4-------12b-12b-|
D|---------------------------------------------------|
A|---------------------------------------------------|
E|---------------------------------------------------|

[Verse]

e|-----------------|-----------------|-----------------|-----------------|
B|-----------------|-----------------|-----------------|-----------------|
G|-----------------|-----------------|-----------------|-----------------|
D|-----------------|---------0-0-2-2-|-----------------|---------0-0-2-2-|
A|---------0-0-2-2-|-0-0-2-2---------|---------0-0-2-2-|-0-0-2-2---------|
E|-0-0-3-4---------|-----------------|---0-3-4---------|-----------------|

   PM-----------------------------|      PM---------------------------|  (x2)

e|-----------------|-----------------|-----------------|-----------------|
B|-----------------|-----------------|-----------------|-----------------|
G|-----------------|---------7-7-9-9-|-----------------|---------7-7-9-9-|
D|-----5-6-7-7-9-9-|-7-7-9-9---------|-----5-6-7-7-9-9-|-7-7-9-9---------|
A|-7-7-------------|-----------------|---7-------------|-----------------|
E|-----------------|-----------------|-----------------|-----------------|

   PM-----------------------------|      PM---------------------------|  

The little lick thrown in goes:

e|---------|
B|----7----|
G|-7b-7-7--|
D|---------|
A|---------|
E|---------|

e|-----------------|-----------------|-----------------|-----------------|
B|-----------------|-----------------|-----------------|-----------------|
G|-----------------|-----------------|-----------------|-----------------|
D|-----------------|---------0-0-2-2-|-----------------|---------0-0-2-0-|
A|---------0-0-2-2-|-0-0-2-2---------|---------0-0-2-2-|-0-0-2-2---------|
E|-0-0-3-4---------|-----------------|---0-3-4---------|-----------------|

   PM-----------------------------|      PM---------------------------|              

e|-----------------|-----------------|-----------------|-----------------|
B|-----------------|-----------------|-----------------|-----------------|
G|-----------------|---------7-7-9-9-|-----------------|---------7-7-9-7-|
D|-----5-6-7-7-9-9-|-7-7-9-9---------|-----5-6-7-7-9-9-|-7-7-9-9---------|
A|-7-7-------------|-----------------|---7-------------|-----------------|
E|-----------------|-----------------|-----------------|-----------------|

   PM-----------------------------|      PM---------------------------|  

[Chorus]

  [D]           [G]           [A]           [D]

e|-2-----2---2---3-----3---3-----------------2---2---|
B|-3-----3---3---3-----3---3---2-----2---2---3---3---|
G|-2-----2---2---0-----0---0---2-----2---2---2---2---|
D|-0-----0---0---0-----0---0---2-----2---2---0---0---|
A|---------------2-----2---2---0-----0---0-----------|
E|---------------3-----3---3-------------------------|

e|---------------------------------------------------|
B|-------10------8--7------7------3------------------|
G|-7-------------------7-------6-----6---------7-----|
D|-----------------------------------------------7---|
A|-------------------------------------------------9-|
E|---------------------------------------------------|


  [D]           [G]           [F#]          [A]

e|-2-----2---2---3-----3---3---2-----2---2-----------|
B|-3-----3---3---3-----3---3---2-----2---2---2---2---|
G|-2-----2---2---0-----0---0---3-----3---3---2---2---|
D|-0-----0---0---0-----0---0---4-----4---4---2---2---|
A|---------------2-----2---2---4-----4---4---0---0---|
E|---------------3-----3---3---2-----2---2-----------|

e|---------------------------------------------------|
B|-------10------8--7------7------3----------7---7---|
G|-7-------------------7-------4-----4-------9b--9b--|
D|---------------------------------------------------|
A|---------------------------------------------------|
E|---------------------------------------------------|


  [D]           [G]           [A]           [D]

e|-2-----2---2---3-----3---3-----------------2---2---|
B|-3-----3---3---3-----3---3---2-----2---2---3---3---|
G|-2-----2---2---0-----0---0---2-----2---2---2---2---|
D|-0-----0---0---0-----0---0---2-----2---2---0---0---|
A|---------------2-----2---2---0-----0---0-----------|
E|---------------3-----3---3-------------------------|

e|---------------------------------------------------|
B|-------10------8--7------7------3------------------|
G|-7-------------------7-------6-----6---------7-----|
D|-----------------------------------------------7---|
A|-------------------------------------------------9-|
E|---------------------------------------------------|


  [D]           [G]           [F#]          [A]

e|-2-----2---2---3-----3---3---2-----2---2-----------|
B|-3-----3---3---3-----3---3---2-----2---2-----2---2-|
G|-2-----2---2---0-----0---0---3-----3---3-----2---2-|
D|-0-----0---0---0-----0---0---4-----4---4-----2---2-|
A|---------------2-----2---2---4-----4---4-----0---0-|
E|---------------3-----3---3---2-----2---2-----------|


e|---------------------------------------------------|
B|-------10------8--7------7------3----------10--10--|
G|-7-------------------7-------4-----4-------12b-12b-|
D|---------------------------------------------------|
A|---------------------------------------------------|
E|---------------------------------------------------|


[Outro]


  [D5]            [D]             [A]             [G]

e|-5---5-5---5-5-5-2---2-2---2-2-2-----------------3---3-3---3-3-3-|
B|-3---3-3---2-3-3-3---3-3---3-3-3-2---2-2---2-2-2-3---3-3---3-3-3-|
G|-2---2-2---2-2-2-2---2-2---2-2-2-2---2-2---2-2-2-0---0-0---0-0-0-|
D|-0---0-0---0-0-0-0---0-0---0-0-0-2---2-2---2-2-2-0---0-0---0-0-0-|
A|---------------------------------0---0-0---0-0-0-2---2-2---2-2-2-|
E|-------------------------------------------------3---3-3---3-3-3-|


e|-----------------------------------------------------------------|
B|-10--------------------------------------------------------------|
G|-12b-------------------------------------------------------------|
D|-----------------------------------------------------------------|
A|-----------------------------------------------------------------|
E|-----------------------------------------------------------------|

  [D]             [A]             [G]             [D]

e|-2---2-2---2-2-2-----------------3---3-3---3-3-3-2---2-2-3-2-0---|
B|-3---3-3---3-3-3-2---2-2---2-2-2-3---3-3---3-3-3-3---3-3-------3-|
G|-2---2-2---2-2-2-2---2-2---2-2-2-0---0-0---0-0-0-2---2-2---------|
D|-0---0-0---0-0-0-2---2-2---2-2-2-0---0-0---0-0-0-0---0-0---------|
A|-----------------0---0-0---0-0-0-2---2-2---2-2-2-----------------|
E|---------------------------------3---3-3---3-3-3-----------------|

e|---0-2-----------------------------------------------------------|
B|--3--------------------------------------------------------------|
G|-2---------------------------------------------------------------|
D|-----------------------------------------------------------------|
A|-----------------------------------------------------------------|
E|-----------------------------------------------------------------|


************************************

| b  Bend
| PM palm mute

************************************
Suggest correction
Give kudos to tab author, rate the tab!
1 2 3 4 5
comments
print report bad tab
2 comments total.
0 reply
thomasgoss225 10 Oct 25, 2016 06:58 PM

Is the tab two guitars or one? I only ask because the outro looks like the parts switch.

0 reply
Peryite 225 Oct 27, 2016 04:36 PM

It's two guitars, one rhythm and one lead guitar for the most part, but in the outro the lead guitar only plays 1 bend, before it just remains silent for the rest of the song.

You're right though, I'm gonna switch it around for better readability.

guest
You may want to rate the tab now too:
select rating
Wanna post a correction for this tab? Suggest correction