Oops, an error
Loading. Please wait.

Vomit In The Ball Pit tab

by Red Vox
463 views 9 this week
no commentswrite comment
1 2 3 4 5
2 more votes to show rating
add to favorites
×
Save as Personal and add changes to this tab that will be seen only by you. Learn more ›
×
You can save this tab as Personal to edit and correct it or add notes. All changes will be seen only by you. Learn more »
launch autoscroll
font size
0
reset
how to read this tab
guitar tuner
edit
Autoscroll
slow
fast
+/-
esc
set tempo
stop
Band: Red Vox
Song: Vomit in the Ball Pit
Tuning: Drop C
Tabbed by: Peryitex

[Intro]
(Don't use palm muting the 2nd time you play the riff.)
D|-------------------------|-------------------------|-------------------------|-------------------------|
A|-------------------------|-------------------------|-------------------------|-------------------------|
F|-------------------------|-------------------------|-------------------------|-------------------------|
C|-------------------------|-------------------------|-------------------------|-------------------------|
G|-------------------------|-------------------------|-------------------------|-------------------------|
C|-0-----0--0--3--0--0--5--|----5--3b----3--0--0--0--|-0-----0--0--3--0--0--5--|----5--3b----0-----------|

   PM-----------------------------------------------------------------------------------------|           2x

D|-------------------------|-------------------------|-------------------------|-------------------------|
A|-------------------------|-------------------------|-------------------------|-------------------------|
F|-------------------------|-------------------------|-------------------------|-------------------------|
C|-------------------------|-------------------------|----------------------5--|----6----7\--------------|
G|-------------------------|-------------------------|----------------------5--|----6----7\--------------|
C|-0-----0--0--3--0--0--5--|----5--3b----3--0--0--0--|-0-----0--0--3--0--0--5--|----6----7\--------------|

   PM---------------------------------------------------------------------|

[Verse]
                                                       1  a  2  a  3  a  4  a
D|-------------------------|-------------------------|-------------------------|-------------------------|
A|-------------------------|-------------------------|-------------------------|-------------------------|
F|-------------------------|-------------------------|-------------------------|-------------------------|
C|-------------------------|-------------------------|-------------------------|-------------------------|
G|-------------------------|-------------------------|-------------------------|-------------------------|
C|-------------------------|-------------------------|-------0--0--------0--0--|-------0--0--------0-----|

                                                            PM--------------------------------------|     4x

D|-------------------------|-------------------------|-------------------------|-------------------------|
A|-------------------------|-------------------------|-15-13----15-13----15-13-|----15-13----15-13-------|
F|-------------------------|-------------------------|-------14-------14-------|-14-------14-------14----|
C|-------------------------|-------------------------|-------------------------|-------------------------|
G|-------------------------|-------------------------|-------------------------|-------------------------|
C|-------------------------|-------------------------|-------------------------|-------------------------|    

After the verse section is played twice, the lead part is harmonised like this:

D|-13-12----13-12----13-12-|----13-12----13-12-------|
A|-------13-------13-------|-13-------13-------13----|
F|-------------------------|-------------------------|
C|-------------------------|-------------------------|
G|-------------------------|-------------------------|
C|-------------------------|-------------------------|

[Chorus]
D|-------------------------|-------------------------|-------------------------|-------------------------|
A|-------------------------|-------------------------|-------------------------|-------------------------|
F|-------------------------|-------------------------|-------------------------|-------------------------|
C|-7-----7--7--8-----8--8--|-9-----9--9--10----10-10-|-12----12-12-12-12-x--12-|----x--12----12-12-------|
G|-7-----7--7--8-----8--8--|-9-----9--9--10----10-10-|-12----12-12-12-12-x--12-|----x--12----12-12-10-7--|
C|-7-----7--7--8-----8--8--|-9-----9--9--10----10-10-|-12----12-12-12-12-x--12-|----x--12----12-12-10-7--|

                                                                                                   PM--|
D|-------------------------|-------------------------|-------------------------|-------------------------|
A|-------------------------|-------------------------|-------------------------|-------------------------|
F|-------------------------|-------------------------|-------------------------|-------------------------|
C|-7-----7--7--8-----8--8--|-9-----9--9--10----10-10-|-12----12-12-12-12-x--5--|----6----7\--------------|
G|-7-----7--7--8-----8--8--|-9-----9--9--10----10-10-|-12----12-12-12-12-x--5--|----6----7\--------------|
C|-7-----7--7--8-----8--8--|-9-----9--9--10----10-10-|-12----12-12-12-12-x--5--|----6----7\--------------|

[Bridge]
D|-------------------------|-------------------------|-------------------------|-------------------------|
A|-------------------------|-------------------------|-------------------------|-------------------------|
F|-------------------------|-------------------------|-------------------------|-------------------------|
C|-------------------------|-------------------------|-------------------------|-------------------------|
G|-------------------------|-------------------------|-------------------------|-------------------------|
C|-0-----0--0--3--0--0--5--|----5--3b----3--0--0--0--|-0-----0--0--3--0--0--5--|----5--3b----0-----------|

D|-------------------------|-------------------------|-------------------------|-------------------------|
A|-------------------------|-------------------------|-------------------------|-------------------------|
F|-------------------------|-------------------------|-------------------------|-------------------------|
C|-------------------------|-------------------------|----------------------5--|----6----7\--------------|
G|-------------------------|-------------------------|----------------------5--|----6----7\--------------|
C|-0-----0--0--3--0--0--5--|----5--3b----3--0--0--0--|-0-----0--0--3--0--0--5--|----6----7\--------------|

[Verse]
                                                      1  a  2  a  3  a  4  a
D|-------------------------|-------------------------|-------------------------|-------------------------|
A|-------------------------|-------------------------|-------------------------|-------------------------|
F|-------------------------|-------------------------|-------------------------|-------------------------|
C|-------------------------|-------------------------|-------------------------|-------------------------|
G|-------------------------|-------------------------|-------------------------|-------------------------|
C|-------------------------|-------------------------|-------0--0--------0--0--|-------0--0--------0-----|

                                                            PM--------------------------------------|     4x

D|-------------------------|-------------------------|-------------------------|-------------------------|
A|-------------------------|-------------------------|-15-13----15-13----15-13-|----15-13----15-13-------|
F|-------------------------|-------------------------|-------14-------14-------|-14-------14-------14----|
C|-------------------------|-------------------------|-------------------------|-------------------------|
G|-------------------------|-------------------------|-------------------------|-------------------------|
C|-------------------------|-------------------------|-------------------------|-------------------------|    

After the verse section is played twice, the lead part is harmonised like this:

D|-13-12----13-12----13-12-|----13-12----13-12-------|
A|-------13-------13-------|-13-------13-------13----|
F|-------------------------|-------------------------|
C|-------------------------|-------------------------|
G|-------------------------|-------------------------|
C|-------------------------|-------------------------|

[Chorus]
D|-------------------------|-------------------------|-------------------------|-------------------------|
A|-------------------------|-------------------------|-------------------------|-------------------------|
F|-------------------------|-------------------------|-------------------------|-------------------------|
C|-7-----7--7--8-----8--8--|-9-----9--9--10----10-10-|-12----12-12-12-12-x--12-|----x--12----12-12-------| 3x 
G|-7-----7--7--8-----8--8--|-9-----9--9--10----10-10-|-12----12-12-12-12-x--12-|----x--12----12-12-10-7--|
C|-7-----7--7--8-----8--8--|-9-----9--9--10----10-10-|-12----12-12-12-12-x--12-|----x--12----12-12-10-7--|

                                                                                                   PM--|
D|-------------------------|-------------------------|-------------------------|-------------------------|
A|-------------------------|-------------------------|-------------------------|-------------------------|
F|-------------------------|-------------------------|-------------------------|-------------------------|
C|-7-----7--7--8-----8--8--|-9-----9--9--10----10-10-|-12----12-12-12-12-x--5--|----6----7\--------------|
G|-7-----7--7--8-----8--8--|-9-----9--9--10----10-10-|-12----12-12-12-12-x--5--|----6----7\--------------|
C|-7-----7--7--8-----8--8--|-9-----9--9--10----10-10-|-12----12-12-12-12-x--5--|----6----7\--------------|

[Solo]
(Rhythm guitar:)
D|-------------------------|-------------------------|-------------------------|-------------------------|
A|-------------------------|-------------------------|-------------------------|-------------------------|
F|-------------------------|-------------------------|-------------------------|------------10----10-----|
C|-12-------------------7--|-------------------------|-8--------------------10-|------------10----10-----| 4x
G|-12-------------------7--|-------------------------|-8--------------------10-|-------------8-----8-----|
C|-12-------------------7--|-------------------------|-8--------------------10-|-------------------------|

D|-------------------------|
A|-------------------------|
F|-------------------------|
C|-12\---------------------|
G|-12\---------------------|
C|-12\---------------------|

 (Lead guitar:)
D|-------------------------|-------------------------|----------------------10-|-------10----------------|
A|-------------11-------10-|-------------------10----|-10-11-10----10-11-13----|----13----13-11-10-------|
F|----10----10-------------|-------------------------|----------12-------------|-------------------12-10-|
C|-12----12----------------|-------------------------|-------------------------|-------------------------| 3x
G|-------------------------|-------------------------|-------------------------|-------------------------|
C|-------------------------|-------------------------|-------------------------|-------------------------|

D|-------------------------|-------------------------|-------------------------|--------------------------|
A|-------------11-------10-|-------------------10----|-10-11-10----------------|--------------------------|
F|----10----10-------------|-------------------------|----------12-10----10-12-|-12b-12-10----10----------|
C|-12----12----------------|-------------------------|----------------12-------|-----------12----12-12-10-|
G|-------------------------|-------------------------|-------------------------|--------------------------|
C|-------------------------|-------------------------|-------------------------|--------------------------|

D|-------------------------|
A|-------------------------|
F|-------------------------|
C|-12\---------------------|
G|-------------------------|
C|-------------------------|

[Verse]
                                                       1  a  2  a  3  a  4  a
D|-------------------------|-------------------------|-------------------------|-------------------------|
A|-------------------------|-------------------------|-------------------------|-------------------------|
F|-------------------------|-------------------------|-------------------------|-------------------------|
C|-------------------------|-------------------------|-------------------------|-------------------------|
G|-------------------------|-------------------------|-------------------------|-------------------------|
C|-------------------------|-------------------------|-------0--0--------0--0--|-------0--0--------0-----|

                                                            PM--------------------------------------|     4x

D|-------------------------|-------------------------|-------------------------|-------------------------|
A|-------------------------|-------------------------|-15-13----15-13----15-13-|----15-13----15-13-------|
F|-------------------------|-------------------------|-------14-------14-------|-14-------14-------14----|
C|-------------------------|-------------------------|-------------------------|-------------------------|
G|-------------------------|-------------------------|-------------------------|-------------------------|
C|-------------------------|-------------------------|-------------------------|-------------------------|    

After the verse section is played twice, the lead part is harmonised like this:

D|-13-12----13-12----13-12-|----13-12----13-12-------|
A|-------13-------13-------|-13-------13-------13----|
F|-------------------------|-------------------------|
C|-------------------------|-------------------------|
G|-------------------------|-------------------------|
C|-------------------------|-------------------------|

[Chorus]
D|-------------------------|-------------------------|-------------------------|-------------------------|
A|-------------------------|-------------------------|-------------------------|-------------------------|
F|-------------------------|-------------------------|-------------------------|-------------------------|
C|-7-----7--7--8-----8--8--|-9-----9--9--10----10-10-|-12----12-12-12-12-x--12-|----x--12----12-12-------| 3x 
G|-7-----7--7--8-----8--8--|-9-----9--9--10----10-10-|-12----12-12-12-12-x--12-|----x--12----12-12-10-7--|
C|-7-----7--7--8-----8--8--|-9-----9--9--10----10-10-|-12----12-12-12-12-x--12-|----x--12----12-12-10-7--|

                                                                                                   PM--|
D|-------------------------|-------------------------|-------------------------|-------------------------|
A|-------------------------|-------------------------|-------------------------|-------------------------|
F|-------------------------|-------------------------|-------------------------|-------------------------|
C|-7-----7--7--8-----8--8--|-9-----9--9--10----10-10-|-12----12-12-12-12-x--5--|----6----7\--------------|
G|-7-----7--7--8-----8--8--|-9-----9--9--10----10-10-|-12----12-12-12-12-x--5--|----6----7\--------------|
C|-7-----7--7--8-----8--8--|-9-----9--9--10----10-10-|-12----12-12-12-12-x--5--|----6----7\--------------|

************************************

| x   Dead note
| b   Bend
| \   Slide down
| PM  Palm mute

************************************

            
            
Suggest correction
Creating personal tab
Creating personal tab
You can edit any tab online and save it as your Personal.

You can edit, replace or remove any tab part or add personal notes – all changes will be seen only by you.

Personal tabs can be accessed anytime from any device, even offline.
Learn more »
Give kudos to tab author, rate the tab!
1 2 3 4 5
comments
print report bad tab
guest
You may want to rate the tab now too:
select rating
Wanna post a correction for this tab? Suggest correction