Oops, an error
Loading. Please wait.

Marjorie tab

76 views 1 this week
no commentswrite comment
1 2 3 4 5
3 more votes to show rating
add to favorites
×
Save as Personal and add changes to this tab that will be seen only by you. Learn more ›
×
You can save this tab as Personal to edit and correct it or add notes. All changes will be seen only by you. Learn more »
launch autoscroll
font size
0
reset
how to read this tab
guitar tuner
edit
Autoscroll
slow
fast
+/-
esc
set tempo
stop
Chords:
Am            002210
Em            022000
Bm7           x24232
Cma7/G        332000
Gma13         354000
G6            355400
Fma13         130230
Cadd9add11/F  132030
Em7           055400
Gma13/A       554000

[Intro]
e|---------------------------------------------------------------------------|
B|---------------------------------------------------------------------------|
G|-----------4-----------------4-----------------4-----------------4\2--0----|
D|--------0-----0-----------0-----0-----------0-----0-----------0----------0-|
A|-----5-----------5-----5-----------5-----5-----------5-----5---------------|
E|--3-----------------3-----------------3-----------------3------------------|

e|--------------------|----------------------|------------------------------------------|
B|-----------8--------|----------------------|------------------------------------------|
G|--------0-----0-----|------------9---------|-----------4p0-----------------4p0--------|x4
D|-----9-----------9--|---------0-----0------|--------0-------0-----------0-------0-----|
A|--7-----------------|-----10-----------10--|-----5-------------5-----5-------------5--|
E|--------------------|--8---------8---------|--3--------3----------3-------------------|

[Verse]
            Be the    light       in  the   garden,
e|--------------------|----------------------|------------------------------------------|
B|-----------8--------|----------------------|------------------------------------------|
G|--------0-----0-----|------------9---------|-----------4p0-----------------4p0--------|
D|-----9-----------9--|---------0-----0------|--------0-------0-----------0-------0-----|
A|--7-----------------|-----10-----------10--|-----5-------------5-----5-------------5--|
E|--------------------|--8---------8---------|--3--------3----------3--------3----------|
            Be the     wind       at  my  feet,
e|--------------------|----------------------|------------------------------------------|
B|-----------8--------|----------------------|------------------------------------------|
G|--------0-----0-----|------------9---------|-----------4p0-----------------4p0--------|
D|-----9-----------9--|---------0-----0------|--------0-------0-----------0-------0-----|
A|--7-----------------|-----10-----------10--|-----5-------------5-----5-------------5--|
E|--------------------|--8---------8---------|--3--------3----------3--------3----------|
          I thought    heard you   in  the  morning,
e|--------------------|----------------------|------------------------------------------|
B|-----------8--------|----------------------|------------------------------------------|
G|--------0-----0-----|------------9---------|-----------4p0-----------------4p0--------|
D|-----9-----------9--|---------0-----0------|--------0-------0-----------0-------0-----|
A|--7-----------------|-----10-----------10--|-----5-------------5-----5-------------5--|
E|--------------------|--8---------8---------|--3--------3----------3--------3----------|
          I thought I caught your voice      calling
e|--------------------|----------------------|------------------------------------------|
B|-----------8--------|----------------------|------------------------------------------|
G|--------0-----0-----|------------9---------|-----------4p0-----------------4p0--------|
D|-----9-----------9--|---------0-----0------|--------0-------0-----------0-------0-----|
A|--7-----------------|-----10-----------10--|-----5-------------5-----5-------------5--|
E|--------------------|--8---------8---------|--3--------3----------3--------3----------|

[Chorus]
    Am                    Em
I  wring  my  hands,  I  wait,
Am                 Bm7
I  have  lost  my  way,
Cma7/G                      Gma13            G6
After  we  parted,  I  got  lost  in  the  garden,
          Cma7/G
Where  I  wander,  and  falter,
          Gma13            G6
Where  I  dream  of  you  often,
        Cma7/G
In  the  cold  light  of  always,
             Gma13             G6    
Through  the  bent  march  of  my  days,
    Cma7/G                                        Gma13          G6
And  I'll  leave  the  light  on,  through  the  darkest  of  darkness


Fma13    Cadd9add11/F    Fma13    Cadd9add11/F

[Verse]
         I bend my thoughts    so they  surround you,
e|--------------------|----------------------|------------------------------------------|
B|-----------8--------|----------------------|------------------------------------------|
G|--------0-----0-----|------------9---------|-----------4p0-----------------4p0--------|
D|-----9-----------9--|---------0-----0------|--------0-------0-----------0-------0-----|
A|--7-----------------|-----10-----------10--|-----5-------------5-----5-------------5--|
E|--------------------|--8---------8---------|--3--------3----------3--------3----------|
          I curl my prayers     around your name
e|--------------------|----------------------|------------------------------------------|
B|-----------8--------|----------------------|------------------------------------------|
G|--------0-----0-----|------------9---------|-----------4p0-----------------4p0--------|
D|-----9-----------9--|---------0-----0------|--------0-------0-----------0-------0-----|
A|--7-----------------|-----10-----------10--|-----5-------------5-----5-------------5--|
E|--------------------|--8---------8---------|--3--------3----------3--------3----------|

[Chorus]
    Am                    Em
I  wring  my  hands,  I  wait,
Am                 Bm7
I  have  lost  my  way,
       Cma7/G                       Gma13            G6
'Cause after  you  parted,  I  got  lost  in  the  garden,
          Cma7/G
Where  I  wander,  and  falter,
          Gma13            G6
Where  I  think  of  you  often,
        Cma7/G
In  the  cold  light  of  always,
             Gma13             G6    
Through  the  bent  march  of  my  days,
      Cma7/G                                      Gma13          G6
Where  I'll  leave  a  light  on,  through  the  darkest  of  darkness,
        Em7    Gma13/A       Cma7/G
But     even     as     I     go,
 Em7      Gma13/A        Cma7/G
Before     I     even     know,
        Em7       Gma13/A     Cma7/G   
The     ripples     of     your     days,
         Em7             Gma13/A       Cma7/G        Gma13/A
Push     out     and     change     our     shape,

[Outro]
          Cma7/G
When  the  plane  crashed,  did  you  feel  it?
          Gma13           G6
Did  you  think  of  me  only?
          Cma7/G
When  the  snow  fell  upon  you,
          Gma13            G6  
Did  you  think  of  our  baby?
         Cma7/G                              Gma13         G6
As  the  night  came,  did  you  know, that  we'd  never  find  you?
  Cma7/G                                      Gma13          G6         Cma7/G
So  I  leave  the  light  on,  through  the  darkest  of  darkness,
               Gma13          G6        Cma7/G
Through  the  darkest  of  darkness,
               Gma13          G6        Cma7/G
Through  the  darkest  of  darkness,

Gma13    G6    Cma7/G

               Gma13          G6
Through  the  darkest  of  darkness.

Fma13    Cadd9add11/F     x4

************************************

| x   Dead note
| p   Pull-off
| \   Slide down

************************************

            
            
Suggest correction
Creating personal tab
Creating personal tab
You can edit any tab online and save it as your Personal.

You can edit, replace or remove any tab part or add personal notes – all changes will be seen only by you.

Personal tabs can be accessed anytime from any device, even offline.
Learn more »
Give kudos to tab author, rate the tab!
1 2 3 4 5
comments
print report bad tab
guest
You may want to rate the tab now too:
select rating
Wanna post a correction for this tab? Suggest correction