Oops, an error
Loading. Please wait.

I Was Only Nineteen Tab

version 1
version 1

Whole song

Video

16,421 views 78 this week
2 commentsread comments
1 2 3 4 5
x 11
add to favorites
launch autoscroll
font size
0
reset
how to read this tab
guitar tuner
Autoscroll
slow
fast
+/-
esc
set tempo
stop
Help us to improve Ultimate-Guitar.com Take our survey!
×
Author
Song: I Was Only Nineteen
Band: Redgum
Tuning: Standard

So this is an awesome aussie song, but theres no tabs on how to
finger pick it so i thought id have a shot at it

[Intro]
   A             C             G             D
e|-------0-------------0-------------3-------------2--------|
B|---2-----2---2---1-----1---1---3-----3---3---3-----3---3--|
G|-----2-----2-------0-----0-------0-----0-------2-----2----|
D|-------------------------------------------0--------------|
A|-0-------------3------------------------------------------|
E|-----------------------------3----------------------------|  Continued.....


    A            G             A             A
e|---------0------------3-------------0-------------0-------|
B|-----2-----2--2---3-----3---3---2-----2---2---2-----2---2-|
G|-------2-----2------0-----0-------2-----2-------2-----2---|
D|----------------------------------------------------------|
A|---0--------------------------0-------------0-------------|
E|----------------3-----------------------------------------|

[Verse]
   A             C             G             D
e|-------0-------------0-------------3-------------2--------|
B|---2-----2---2---1-----1---1---3-----3---3---3-----3---3--|
G|-----2-----2-------0-----0-------0-----0-------2-----2----|
D|-------------------------------------------0--------------|
A|-0-------------3------------------------------------------|
E|-----------------------------3----------------------------|  Continued.....


    A            G             A             A
e|---------0------------3-------------0-------------0-------|
B|-----2-----2--2---3-----3---3---2-----2---2---2-----2---2-|
G|-------2-----2------0-----0-------2-----2-------2-----2---| 
D|----------------------------------------------------------|
A|---0--------------------------0-------------0-------------|
E|----------------3-----------------------------------------|(x2)

[Chorus]
    E             E             D             A
e|--------0-------------0-------------2-------------0------|
B|----0-----0---0---0-----0---0---3-----3---3---2-----2---2|
G|------1-----1-------1-----1-------2-----2-------2-----2--|
D|------------------------------0--------------------------|
A|--------------------------------------------0------------|
E|--0-------------0----------------------------------------|(x2)

   F#m            E            D             A
e|--------2------------0-------------2-------------0-------|
B|----2-----2---2---0----0---0---3-----3---3---2-----2---2-|
G|------2-----2-------1----1-------2-----2-------2-----2---|
D|-----------------------------0---------------------------|
A|-------------------------------------------0-------------|
E|--2-------------0----------------------------------------|

    E                         D
e|--------0--------|       |--------2--------|
B|----0-----0---0--|       |----3-----3---3--|
G|------1-----1----|       |------2-----2----|
D|-----------------|       |--0--------------|
A|-----------------|       |-----------------|
E|--0--------------|(x4)   |-----------------|(x4)

yea so their all the parts of the song and you can figure out how
to play it. it looks pretty hard coz of the way i tabbed it, but
they all have basically the same pattern and easy once your used
to it. so yea have fun with this one :)
Suggest correction
comments
print report bad tab
2 comments total.
0 reply
Japankid 10 Oct 24, 2013 02:11 AM

arr!! so hard, i cannot play it in time or even properly :(

+1 reply
Deyent 10 Apr 14, 2015 09:54 AM

the time signature is 4/4 so what you need to do is play the first note (the bass note) for an eighth then have an eighth rest then the rest of the notes are played at a consecutive pace

guest
You may want to rate the tab now too:
select rating
Wanna post a correction for this tab? Suggest correction