Oops, an error
Loading. Please wait.

Place Your Hands tab

version 3
version 3

Whole song

Interactive

by Reef
65,491 views 60 this week
2 commentsread comments
1 2 3 4 5
x 10
add to favorites
×
Save as Personal and add changes to this tab that will be seen only by you. Learn more ›
×
You can save this tab as Personal to edit and correct it or add notes. All changes will be seen only by you. Learn more »
launch autoscroll
font size
0
reset
how to read this tab
guitar tuner
backing track
0:00
0:00
edit
Autoscroll
slow
fast
+/-
esc
set tempo
stop
Author
---------------------------------------------------------------
                Reef - Place Your Hands
          Tabbed by DTMax - dtmax_@hotmail.com
---------------------------------------------------------------

Tuned to Drop D

e|--------------------------|--------------------------|
B|-------7----x-x-7h8--x-8--|-------7----x-x-7h8--x-8--|
G|-------7----x-x-7----x-7--|-------7----x-x-7----x-7--|
D|-------7----x-x-7h9--x-9--|-------7----x-x-7h9--x-9--|
A|--0---------x-x------x----|--0---------x-x------x----|
E|--0-----------------------|--0-----------------------|

e|--------------------------|--------------------------|
B|-------7----x-x-7h8--x-8--|-------7----x-x-7h8--x-8--|
G|-------7----x-x-7----x-7--|-------7----x-x-7----x-7--|
D|-------7----x-x-7h9--x-9--|-------7----x-x-7h9--x-9--|
A|--0---------x-x------x----|--0---------x-x------x----|
E|--0-----------------------|--0-----------------------|

e|--------------------------|--------------------------|
B|-------7----x-x-7h8--x-8--|-------7----x-x-7h8--x-8--|
G|-------7----x-x-7----x-7--|-------7----x-x-7----x-7--|
D|-------7----x-x-7h9--x-9--|-------7----x-x-7h9--x-9--|
A|--0---------x-x------x----|--0---------x-x------x----|
E|--0-----------------------|--0-----------------------|

e|--------------------------|--------------------------|
B|-------7----x-x-7h8--x-8--|-------7----x-x-7h8--x-8--|
G|-------7----x-x-7----x-7--|-------7----x-x-7----x-7--|
D|-------7----x-x-7h9--x-9--|-------7----x-x-7h9--x-9--|
A|--0---------x-x------x----|--0---------x-x------x----|
E|--0-----------------------|--0-----------------------|

e|-----------------------------|------------------------------------------|
B|--12----12-12--x--x--x--x--x-|--12----12-12-----------------------------|
G|--12----12-12--x--x--x--x--x-|--12----12-12-----------------------------|
D|--12----12-12--x--x--x--x--x-|--12----12-12-----------------------------|
A|---------------x--x--x--x--x-|---------------12h14-17-14-12h14-17-14-12-|
E|---------------x--x--x--x--x-|------------------------------------------|

e|--------------------------|--------------------------|---------------------|
B|-------7----x-x-7h8--x-8--|-------7----x-x-7h8--x-8--|-----------7---------|
G|-------7----x-x-7----x-7--|-------7----x-x-7----x-7--|----------------7----|
D|-------7----x-x-7h9--x-9--|-------7----x-x-7h9--x-9--|----------------7----|
A|--0---------x-x------x----|--0---------x-x------x----|---------------------|
E|--0-----------------------|--0-----------------------|--0------------------|

e|----------------------|--------------------------|--------------------------|
B|----------------------|-------7----x-x-7h8--x-8--|-------7----x-x-7h8--x-8--|
G|----------------------|-------7----x-x-7----x-7--|-------7----x-x-7----x-7--|
D|--9------9b---9--7----|-------7----x-x-7h9--x-9--|-------7----x-x-7h9--x-9--|
A|--7-------------------|--0---------x-x------x----|--0---------x-x------x----|
E|----------------------|--0-----------------------|--0-----------------------|

e|---------------------x----|---------------------x----|
B|-------7----7--7-7-7-x-8--|-------7----7--7-7-7-x-8--|
G|-------7----7--7-7-7-x-7--|-------7----7--7-7-7-x-7--|
D|-------7----7--7-7-7-x-9--|-------7----7--7-7-7-x-9--|
A|--0-----------------------|--0-----------------------|
E|--0-----------------------|--0-----------------------|

e|---------------------x----|---------------------x----|
B|-------7----7--7-7-7-x-8--|-------7----7--7-7-7-x-8--|
G|-------7----7--7-7-7-x-7--|-------7----7--7-7-7-x-7--|
D|-------7----7--7-7-7-x-9--|-------7----7--7-7-7-x-9--|
A|--0-----------------------|--0-----------------------|
E|--0-----------------------|--0-----------------------|

e|-----------------------------|------------------------------------------|
B|--12----12-12--x--x--x--x--x-|--12----12-12-----------------------------|
G|--12----12-12--x--x--x--x--x-|--12----12-12-----------------------------|
D|--12----12-12--x--x--x--x--x-|--12----12-12-----------------------------|
A|---------------x--x--x--x--x-|---------------12h14-17-14-12h14-17-14-12-|
E|---------------x--x--x--x--x-|------------------------------------------|

e|---------------------x----|---------------------x----|---------------------|
B|-------7----7--7-7-7-x-8--|-------7----7--7-7-7-x-8--|---------------------|
G|-------7----7--7-7-7-x-7--|-------7----7--7-7-7-x-7--|-----------7---------|
D|-------7----7--7-7-7-x-9--|-------7----7--7-7-7-x-9--|----------------7----|
A|--0-----------------------|--0-----------------------|----------------5----|
E|--0-----------------------|--0-----------------------|--0------------------|

e|-----------------------|--------------------------|-------------------------|
B|-----------------------|-------7----x-x-7h8--x-8--|-------7----x-x-7h8--x-8-|
G|-----------------------|-------7----x-x-7----x-7--|-------7----x-x-7----x-7-|
D|--9----9--9b---9--7----|-------7----x-x-7h9--x-9--|-------7----x-x-7h9--x-9-|
A|--7--------------------|--0---------x-x------x----|--0---------x-x------x---|
E|-----------------------|--0-----------------------|--0----------------------|

e|--------------------------|--------------------------|
B|-------7----x-x-7h8--x-8--|-------7----x-x-7h8--x-8--|
G|-------7----x-x-7----x-7--|-------7----x-x-7----x-7--|
D|-------7----x-x-7h9--x-9--|-------7----x-x-7h9--x-9--|
A|--0---------x-x------x----|--0---------x-x------x----|
E|--0-----------------------|--0-----------------------|

e|--------------------------|--------------------------|
B|-------7----x-x-7h8--x-8--|-------7----x-x-7h8--x-8--|
G|-------7----x-x-7----x-7--|-------7----x-x-7----x-7--|
D|-------7----x-x-7h9--x-9--|-------7----x-x-7h9--x-9--|
A|--0---------x-x------x----|--0---------x-x------x----|
E|--0-----------------------|--0-----------------------|

e|--------------------------|--------------------------|
B|-------7----x-x-7h8--x-8--|-------7----x-x-7h8--x-8--|
G|-------7----x-x-7----x-7--|-------7----x-x-7----x-7--|
D|-------7----x-x-7h9--x-9--|-------7----x-x-7h9--x-9--|
A|--0---------x-x------x----|--0---------x-x------x----|
E|--0-----------------------|--0-----------------------|

e|----------------------------|------------------------------|
B|-------------7--7-7-7-7-8---|--8-8-8--8-8-8-8-8------------|
G|-------------7--7-7-7-7-7---|--7-7-7--7-7-7-7-7------------|
D|--------7--7-7--7-7-7-7-9---|--9-9-9--9-9-9-9-9--7h9h7-----|
A|--7h-9--9--9----------------|---------------------------9--|
E|--0-------------------------|------------------------------|

e|----------------------------|------------------------------|
B|-------------7--7-7-7-7-8---|--8-8-8--8-8-8-8-8------------|
G|-------------7--7-7-7-7-7---|--7-7-7--7-7-7-7-7------------|
D|--------7--7-7--7-7-7-7-9---|--9-9-9--9-9-9-9-9--7h9h7-----|
A|--7h-9--9--9----------------|---------------------------9--|
E|--0-------------------------|------------------------------|

e|----------------------------|------------------------------|
B|-------------7--7-7-7-7-8---|--8-8-8--8-8-8-8-8------------|
G|-------------7--7-7-7-7-7---|--7-7-7--7-7-7-7-7------------|
D|--------7--7-7--7-7-7-7-9---|--9-9-9--9-9-9-9-9--7h9h7-----|
A|--7h-9--9--9----------------|---------------------------9--|
E|--0-------------------------|------------------------------|

e|----------------------------|---------------------------------|
B|-------------7--7-7-7-7-8---|--8-8-8--8-8-8-8-8-8-8-8-8-8-8-8-|
G|-------------7--7-7-7-7-7---|--7-7-7--7-7-7-7-7-7-7-7-7-7-7-7-|
D|--------7--7-7--7-7-7-7-9---|--9-9-9--9-9-9-9-9-9-9-9-9-9-9-9-|
A|--7h-9--9--9----------------|---------------------------------|
E|--0-------------------------|---------------------------------|

e|----------------------------x-x-|--------------------------|
B|--8-8-8-8-8-8-8-8-8-8--8-8--x-x-|-------7----x-x-7h8--x-8--|
G|--7-7-7-7-7-7-7-7-7-7--7-7--x-x-|-------7----x-x-7----x-7--|
D|--9-9-9-9-9-9-9-9-9-9--9-9--x-x-|-------7----x-x-7h9--x-9--|
A|----------------------------x-x-|--0---------x-x------x----|
E|--------------------------------|--0-----------------------|

e|--------------------------|--------------------------|
B|-------7----x-x-7h8--x-8--|-------7----x-x-7h8--x-8--|
G|-------7----x-x-7----x-7--|-------7----x-x-7----x-7--|
D|-------7----x-x-7h9--x-9--|-------7----x-x-7h9--x-9--|
A|--0---------x-x------x----|--0---------x-x------x----|
E|--0-----------------------|--0-----------------------|

e|--------------------------|---------------------x----|
B|-------7----x-x-7h8--x-8--|-------7----7--7-7-7-x-8--|
G|-------7----x-x-7----x-7--|-------7----7--7-7-7-x-7--|
D|-------7----x-x-7h9--x-9--|-------7----7--7-7-7-x-9--|
A|--0---------x-x------x----|--0-----------------------|
E|--0-----------------------|--0-----------------------|

e|---------------------x----|---------------------x----|
B|-------7----7--7-7-7-x-8--|-------7----7--7-7-7-x-8--|
G|-------7----7--7-7-7-x-7--|-------7----7--7-7-7-x-7--|
D|-------7----7--7-7-7-x-9--|-------7----7--7-7-7-x-9--|
A|--0-----------------------|--0-----------------------|
E|--0-----------------------|--0-----------------------|

e|---------------------x----|-----------------------------|
B|-------7----7--7-7-7-x-8--|--12----12-12--x--x--x--x--x-|
G|-------7----7--7-7-7-x-7--|--12----12-12--x--x--x--x--x-|
D|-------7----7--7-7-7-x-9--|--12----12-12--x--x--x--x--x-|
A|--0-----------------------|---------------x--x--x--x--x-|
E|--0-----------------------|---------------x--x--x--x--x-|

e|------------------------------------------|---------------------x----|
B|--12----12-12-----------------------------|-------7----7--7-7-7-x-8--|
G|--12----12-12-----------------------------|-------7----7--7-7-7-x-7--|
D|--12----12-12-----------------------------|-------7----7--7-7-7-x-9--|
A|---------------12h14-17-14-12h14-17-14-12-|--0-----------------------|
E|------------------------------------------|--0-----------------------|

e|---------------------x----|---------------------|------------------------|
B|-------7----7--7-7-7-x-8--|---------------------|------------------------|
G|-------7----7--7-7-7-x-7--|-----------7---------|------------------------|
D|-------7----7--7-7-7-x-9--|----------------7----|--9----9--9b---9-9-7----|
A|--0-----------------------|----------------5----|--7---------------------|
E|--0-----------------------|--0------------------|------------------------|

e|--------------------------|--------------------------|
B|-------7----x-x-7h8--x-8--|-------7----x-x-7h8--x-8--|
G|-------7----x-x-7----x-7--|-------7----x-x-7----x-7--|
D|-------7----x-x-7h9--x-9--|-------7----x-x-7h9--x-9--|
A|--0---------x-x------x----|--0---------x-x------x----|
E|--0-----------------------|--0-----------------------|

e|--------------------------|--------------------------|------------------|
B|-------7----x-x-7h8--x-8--|-------7----x-x-7h8--x-8--|------------------|
G|-------7----x-x-7----x-7--|-------7----x-x-7----x-7--|------------------|
D|-------7----x-x-7h9--x-9--|-------7----x-x-7h9--x-9--|------------------|
A|--0---------x-x------x----|--0---------x-x------x----|------------------|
E|--0-----------------------|--0-----------------------|------------------|

e|------------------|------------------|------------------|-------------------|
B|------------------|------------------|------------------|-------------------|
G|------------------|------------------|------------------|-------------------|
D|------------------|------------------|------------------|-------------------|
A|------------------|------------------|------------------|-------------------|
E|------------------|------------------|------------------|--2----------------|

e|------------------|---------------------|------------------|
B|------------------|--8-8----------------|------------------|
G|------------------|--7-7----------------|------------------|
D|------------------|--9-9----------------|------------------|
A|------------------|---------0-----------|------------------|
E|------------------|---------0-----------|------------------|

e|-------------------------------|------------------|-----------------------|
B|-------------------------------|------------------|-----7--7-7------------|
G|-------------------------------|------------------|-----7--7-7------------|
D|-------------------------------|------------------|--7--7--7-7------------|
A|--12-14-14-17-17-12------------|------------------|--9--------------------|
E|--------------------0----------|------------------|-------------0---------|

e|------------------|----------------------------------|
B|------------------|--11--11--11--11--11--11--11--11--|
G|------------------|--11--11--11--11--11--11--11--11--|
D|------------------|--11--11--11--11--11--11--11--11--|
A|------------------|--9---9---9---9---9---9---9---9---|
E|------------------|----------------------------------|

e|----------------------------------|----------------------------|
B|--12--12--12--12--12--12--12--12--|-------7-7-7--7-8--8-8-8-8--|
G|--12--12--12--12--12--12--12--12--|-------7-7-7--7-7--7-7-7-7--|
D|--12--12--12--12--12--12--12--12--|-------7-7-7--7-9--9-9-9-9--|
A|--10--10--10--10--10--10--10--10--|----------------------------|
E|----------------------------------|--0-------------------------|

e|----------------------------|-----------------------------------|
B|-------7-7-7--7-8--8-8-8-8--|-----------------------------------|
G|-------7-7-7--7-7--7-7-7-7--|-----------------------------------|
D|-------7-7-7--7-9--9-9-9-9--|-------------12---12-------12------|
A|--0-------------------------|-------12h14---------12-14-----14--|
E|--0-------------------------|--0--------------------------------|

e|-------------------------------------|------------------------------|
B|-------------------------------------|------------------------------|
G|-------------------------------------|---------------------7----9/7-|
D|-------------------14h12-9-12-9------|-----------7---9h7------------|
A|-------12-14-14-14---------------12/-|-------7h9---9-----9---9------|
E|--0----------------------------------|--0---------------------------|

e|------------------------------|------------------------------|
B|------------------------------|------------------------------|
G|-----4h2---2------------------|------------------------------|
D|---------4---2h4---2h0-0------|------------------------------|
A|--------------------------2h0-|--3h5--5-3h5--5-3h5--5-3h5--5-|
E|--0---------------------------|------------------------------|

e|----------------------------------|--------------------------|
B|----------------------------------|-------7----x-x-7h8--x-8--|
G|--------------------5-------------|-------7----x-x-7----x-7--|
D|------3h0-5h0-3-5h7---5h3-5h3-----|-------7----x-x-7h9--x-9--|
A|--3h5-------------------------5h3-|--0---------x-x------x----|
E|----------------------------------|--0-----------------------|

e|--------------------------|--------------------------|
B|-------7----x-x-7h8--x-8--|-------7----x-x-7h8--x-8--|
G|-------7----x-x-7----x-7--|-------7----x-x-7----x-7--|
D|-------7----x-x-7h9--x-9--|-------7----x-x-7h9--x-9--|
A|--0---------x-x------x----|--0---------x-x------x----|
E|--0-----------------------|--0-----------------------|

e|--------------------------|--------------------------|
B|-------7----x-x-7h8--x-8--|-------7----x-x-7h8--x-8--|
G|-------7----x-x-7----x-7--|-------7----x-x-7----x-7--|
D|-------7----x-x-7h9--x-9--|-------7----x-x-7h9--x-9--|
A|--0---------x-x------x----|--0---------x-x------x----|
E|--0-----------------------|--0-----------------------|

e|--------------------------|--------------------------|
B|-------7----x-x-7h8--x-8--|-------7----x-x-7h8--x-8--|
G|-------7----x-x-7----x-7--|-------7----x-x-7----x-7--|
D|-------7----x-x-7h9--x-9--|-------7----x-x-7h9--x-9--|
A|--0---------x-x------x----|--0---------x-x------x----|
E|--0-----------------------|--0-----------------------|

e|--------------------------|---------------------------|
B|-------7----x-x-7h8--x-8--|-------7---7--8-----8-8----|
G|-------7----x-x-7----x-7--|-------7---7--7-----7-7----|
D|-------7----x-x-7h9--x-9--|-------7---7--9-7h9-----9/-|
A|--0---------x-x------x----|---------------------------|
E|--0-----------------------|--0------------------------|

e|---------------------------------|----------------------------|
B|-------7---7/-12-----------------|-------7--7--x-8-----8------|
G|-------7---7/-12-----------------|-------7--7--x-7-----7------|
D|-------7---7/-12-------12-12-----|-------7--7--x-9-7h9-9--9/4-|
A|-----------------12h14-------10/-|-------------x--------------|
E|--0------------------------------|--0-------------------------|

e|-------------------||
B|--7----------------||
G|--7----------------||
D|--7----------------||
A|--5----------------||
E|--0----------------||


************************************

| x  Dead note
| h  Hammer-on
| b  Bend
| /  Slide up

************************************

            
            
Suggest correction
Creating personal tab
Creating personal tab
You can edit any tab online and save it as your Personal.

You can edit, replace or remove any tab part or add personal notes – all changes will be seen only by you.

Personal tabs can be accessed anytime from any device, even offline.
Learn more »
comments
print report bad tab
2 comments total.
0 reply
100%guitarmad 489 Oct 11, 2007 10:39 AM

great tab, thansk

+3 reply
Leumas99 40 Nov 19, 2007 11:31 AM

Great tab! Might be easier in that first little fill bit if you play

----------------------------|
----------------------------|
----------------------------|
-------12----------12-------|
-12h14----14-12h14----14-12-|
----------------------------|



But same thing really!

guest
You may want to rate the tab now too:
select rating
Wanna post a correction for this tab? Suggest correction