Oops, an error
Loading. Please wait.

Beer Bass Tab

version 1
version 1

Whole song

60,195 views 57 this week
13 commentsread comments
1 2 3 4 5
x 34
add to favorites
launch autoscroll
font size
0
reset
guitar tuner
Autoscroll
slow
fast
+/-
esc
set tempo
stop
Help us to improve Ultimate-Guitar.com Take our survey!
×
Beer - Reel Big Fish
By:Jeff Hernandez (allroy19@idt.net)
from Joseph's Reel Big Fish Page at:
http://www.geocities.com/SunsetStrip/Studio/3144/
==========================================================================
*PLEASE DO NOT PUT THESE TABS ON YOUR OWN PAGE W/0 ASKING ME FIRST.*

[Harmonic intro]
G|--5---------12---------|
D|5---5----12-----12\----|
A|-----------------------|
E|-----------------------|

                                         on the 6th one play:
G|-----------------------------------|   |-------------------------------|
D|----2-----------------2-5----------|   |-----2-------------------------|
A|0-3---3----0-3----3-5----------2-5-|x5 |-0-3---3----0-3----2-2-2-2-----|
E|---------1-----1-----------3-5-----|   |----------1-----1---------3-3/-|

G|---------------------------------------------------------------5-77-77-54--|
D|--------------5-3----------------------------------5-3----5-77------------7|
A|----3-1---3-3-----5------2-5-----2-5-----3-1---3-3-----5-------------------|
E|1-1-----3------------3-5-----3-5-----1-1-----3-----------------------------|

                                         on the 6th one play:
G|-----------------------------------|   |-------------------------------|
D|----2-----------------2-5----------|   |-----2-------------------------|
A|0-3---3----0-3----3-5----------2-5-|x5 |-0-3---3----0-3----2-2-2-2-----|
E|---------1-----1-----------3-5-----|   |----------1-----1---------3-3/-|

G|---------------------------------------------------------------5-77-77-54--|
D|--------------5-3----------------------------------5-3----5-77------------7|
A|----3-1---3-3-----5------2-5-----2-5-----3-1---3-3-----5-------------------|
E|1-1-----3------------3-5-----3-5-----1-1-----3-----------------------------|

G|-----------------------------------|-------------------------------------16-19-|
D|----2-----------------2-5----------|----2------7-10----------14-17--17-19------|
A|0-3---3----0-3----3-5----------2-5-|0-3---3--8------8--15-17-------------------| x3
E|---------1-----1-----------3-5-----|-------------------------------------------|

slow part 
G|-------------------------0-------------------------------0----12-10------------|
D|-----2---------------0-2-------------2---------------0-2------------12-10------|
A|0--3---3----0-3----3------------0--3---3----0-3----3----------------------12-10|
E|----------1-----1----------3b-------------1-----1------------------------------|

G|---------------------------------------------------------------5-77-77-54--|
D|--------------5-3----------------------------------5-3----5-77------------7|
A|----3-1---3-3-----5------2-5-----2-5-----3-1---3-3-----5-------------------|
E|1-1-----3------------3-5-----3-5-----1-1-----3-----------------------------|

G|-----------------------------------|---------------------------------------|
D|----2-----------------2-5----------|----2----------------------------------|
A|0-3---3----0-3----3-5----------2-5-|0-3---3----0-3----2-2-2 2--------------| x6
E|---------1-----1-----------3-5-----|---------1-----1----------3-3----------|

[Outro]
G|---------------------------------------------------------------------------|
D|--------5---5-7----7/9-7-5-7-5-------5-7-----------------------------------|
A|----5-7---7--------------------7-5-7---------------------------------------|
E|5-7--------------------------------------7b-5\-----------------------------|

************************************

| \  Slide down
| x  Dead note
| /  Slide up
| b  Bend

************************************
Suggest correction
comments
print report bad tab
13 comments total. Showing first comments.
0 reply
korn are bent 0 Feb 28, 2002 12:00 AM

nice

0 reply
terry abott 10 Apr 04, 2002 12:00 AM

KICK ASS TAB M8!!! A GREAT TAB FOR A GREAT SONG!!! KICK ASS!!!!!

0 reply
wh1ck3r 10 May 21, 2005 12:00 AM

awesome tab man!

guest
You may want to rate the tab now too:
select rating
Wanna post a correction for this tab? Suggest correction