Oops, an error
Loading. Please wait.

Beer bass

version 2
version 2

Whole song

10,352 views 1 this week
1 commentread comment
1 2 3 4 5
x 3
add to favorites
×
Save as Personal and add changes to this tab that will be seen only by you. Learn more ›
×
You can save this tab as Personal to edit and correct it or add notes. All changes will be seen only by you. Learn more »
launch autoscroll
font size
0
reset
guitar tuner
backing track
0:00
0:00
edit
Autoscroll
slow
fast
+/-
esc
set tempo
stop
Author
Difficulty
I found this tab on here and noticed that some parts didnt fit in with the song so i fixed it up.





Beer – Reel Big Fish

   Harmonics
G|-12~-----------------------------------------------------------------------|
D|----12~---12---------------------------------------------------------------|
A|-------12---12\------------------------------------------------------------|
E|---------------------------------------------------------------------------|
     x5                                  6th time
G|-----------------------------------|---------------------------------------|
D|----2-----------------2-5----------|----2----------------------------------|
A|0-3---3----0-3----3-5----------2-5-|0-3---3----0-3----2-2-22---------------|
E|---------1-----1-----------3-5-----|---------1-----1---------333/\---------|


G|---------------------------------------------------------------5-77777-54--|
D|--------------5-3----------------------------------5-3----5-77------------7|
A|----3-1---3-3-----5------2-5-----2-5-----3-1---3-3-----5-------------------|
E|1-1-----3------------3-5-----3-5-----1-1-----3-----------------------------|

G|---------------------------------------------------------------------------|
D|------------------5-3---------------------------------5-3------------------|
A|--------3-1---3-3-----5-----2-5-----2-5-----3-1---3-3-----5-----2-5-----2-5|
E|1/5\1-1-----3-----------3-5-----3-5-----1-1-----3-----------3-5-----3-5----|

     x5                                   6th time
G|-----------------------------------|---------------------------------------|
D|----2-----------------2-5----------|----2----------------------------------|
A|0-3---3----0-3----3-5----------2-5-|0-3---3----0-3----2-2-22---------------|
E|---------1-----1-----------3-5-----|---------1-----1---------333/\---------|

G|---------------------------------------------------------------5-77777-54--|
D|--------------5-3----------------------------------5-3----5-77------------7|
A|----3-1---3-3-----5------2-5-----2-5-----3-1---3-3-----5-------------------|
E|1-1-----3------------3-5-----3-5-----1-1-----3-----------------------------|
 
G|---------------------------------------------------------------------------|
D|------------------5-3---------------------------------5-3------------------|
A|--------3-1---3-3-----5-----2-5-----2-5-----3-1---3-3-----5-----2-5-----2-5|
E|1/5\1-1-----3-----------3-5-----3-5-----1-1-----3-----------3-5-----3-5----|
   
        x3
G|-----------------------------------|-------------------------------------16-19-|
D|----2-----------------2-5----------|----2------7-10----------14-17--17-19------|
A|0-3---3----0-3----3-5----------2-5-|0-3---3--8------8--15-17-------------------|
E|---------1-----1-----------3-5-----|-------------------------------------------|
    slow part                                             
G|-------------------------0----|---------------------------0-|
D|-----2---------------0-2------|-------2---------------0-2---|
A|0--3---3----0-3----3----------|--0--3---3----0-3----3-------|
E|----------1-----1----------3b-|------------1-----1----------|

G|-------------------12-10-------------|-------------------------0----|
D|----2------------10-------12-10------|-----2---------------0-2------|
A|0-3---3----0-3-----------------12-10-|0--3---3----0-3----3----------|
E|---------1-----1---------------------|----------1-----1----------3--|

G|-------------------------0----|-----------------------------------|
D|-----2---------------0-2------|-------2---------------------------|
A|0--3---3----0-3----3----------|--0--3---3----0-3----2-2-22--------|
E|----------1-----1----------3--|------------1-----1---------333/\--|

G|---------------------------------------------------------------5-77777-54--|
D|--------------5-3----------------------------------5-3----5-77------------7|
A|----3-1---3-3-----5------2-5-----2-5-----3-1---3-3-----5-------------------|
E|1-1-----3------------3-5-----3-5-----1-1-----3-----------------------------|
         x5
G|-----------------------------------|--------------------------------------|
D|----2-----------------2-5----------|----2---------------------------------|
A|0-3---3----0-3----3-5----------2-5-|0-3---3----0-3----2-2-2-2-------------|
E|---------1-----1-----------3-5-----|---------1-----1----------3-3---------|
     outro
G|---------------------------------------------------------------------------|
D|--------5---5-7----7/9-7-5-7-5-------5-7-----------------------------------|
A|----5-7---7--------------------7-5-7---------------------------------------|
E|5-7--------------------------------------7b-5/-----------------------------|
Suggest correction
Creating personal tab
Creating personal tab
You can edit any tab online and save it as your Personal.

You can edit, replace or remove any tab part or add personal notes – all changes will be seen only by you.

Personal tabs can be accessed anytime from any device, even offline.
Learn more »
Give kudos to tab author, rate the tab!
1 2 3 4 5
comments
print report bad tab
1 comment total.
0 reply
DespairTheOcean 10 Mar 14, 2013 04:17 PM

You didn't do a great job fixing it up there are still some really bad errors -____-

guest
You may want to rate the tab now too:
select rating
Wanna post a correction for this tab? Suggest correction