Oops, an error
Loading. Please wait.

Beer Tab

version 3
version 3

Whole song

8,958 views 6 this week
3 commentsread comments
1 2 3 4 5
accurate
x 3
add to favorites
launch autoscroll
font size
0
reset
how to read this tab
guitar tuner
Tab Pro tools
  • play this tab
  • loop segment
  • change instrument
  • show fretboard
  • metronome
×
Best way to learn
"Beer"
Autoscroll
slow
fast
+/-
esc
set tempo
stop
Yeah this is my first tab is what I got out of the song,
it may be right it may be wrong but it sounds good so here ya go.

Intro

(clean) 2X
E---5-55-55---1-11-11---3-33-33---3-33-55---------------------------------------
B---5-55-55---1-11-11---3-33-33---3-33-55---------------------------------------
G---5-55-55---2-22-22---5-55-55---3-33-55---------------------------------------
D---7-77-77---3-33-33---5-55-55---5-55-55---------------------------------------
A---7-77-77---3-33-33---3-33-33---5-55-55---------------------------------------
E---5-55-55---1-11-11---3-33-33---3-33-33---------------------------------------

1st Solo
(distortion)
E-----------------10-12-12-10----10----------------------------------------
B-10-10-10-/10--13------------13-----10p8----------------------------------
G-----------------------------------------9-7-5-7-5-5----5-7-9^^-7-5-7-5-9-
D--------------------------------------------------7--5-7------------------
A----------------------------------------------------7---------------------
E--------------------------------------------------------------------------

Verse  4X
(clean)
E---5-55-55---1-11-11---3-33-33---3-33-33---------------------------------------
B---5-55-55---1-11-11---3-33-33---3-33-33---------------------------------------
G---5-55-55---2-22-22---5-55-55---4-44-44---------------------------------------
D---7-77-77---3-33-33---5-55-55---5-55-55---------------------------------------
A---7-77-77---3-33-33---3-33-33---5-55-55---------------------------------------
E---5-55-55---1-11-11---3-33-33---3-33-33---------------------------------------


Chorus 4X

E-----------------------------------------------------------------------
B-----------------------------------------------------------------------
G----------5555---------------------------------------------------------
D---3333---5555--5555--5555---------------------------------------------
A---3333---3333--5555--5555---------------------------------------------
E---1111---------3555--3333---------------------------------------------

1st Solo

Verse

Chorus

2nd Solo

E----------------------------------------------------------------------
B---10-10-10---8----------^--------------------------------------------
G------------9---9-8-7-5--7-5--------------5h7-7-9-7-5h7---------------
D-------------------------7-------7------7---------------7-555-7-555-7-
A----------------------------------------------------------xxx-x-xxx-x-
E-----------------------------5-5---5-5--------------------333-5-333-5-
    
E----^-------17-17-17-20-20-20-21-21-21--------------------------
B---15-13----17-17-17-20-20-20-21-21-21--------------------------
G---------14-----------------------------------------------------
D----------------------------------------------------------------
A----------------------------------------------------------------
E----------------------------------------------------------------

Verse X6
E-5-55-55--1-11-11--3-33-33------------------------------------
B-5-55-55--1-11-11--3-33-33------------------------------------
G-5-55-55--1-11-11--3-33-33------------------------------------
D-7-77-77--3-33-33--5-55-55------------------------------------
A--------------------------------------------------------------
E--------------------------------------------------------------

Fill Ins
E---------
B---^-----
G---7-5---
D-------7-
A---------
E---------

E---------------
B---------------
G-----------5-7-
D-------5-7-----
A---5-7---------
E---------------

Chorus

1st Solo

Outro

E----------------------------------------------------------------
B----------------------------------------------------------------
G-----------555--------------------------------------------------
D---777-333-xxx-555----------------------------------------------
A---xxx-xxx-333-xxx----------------------------------------------
E---555-111-----333----------------------------------------------

End on

E-----
B-----
G-----
D---7-
A---7-
E---5-
comments
We did not receive enough feedback on this tab! Please rate:
print report bad tab
1 2 3 4 5
3 comments total.
0 reply
STERIOGRAM134 wrote on January 28 2006, 07:46 pm

its ok

0 reply
guitar_freak333 wrote on August 26 2006, 10:14 pm

sucks

0 reply
Pyro_TheVampire wrote on October 4 2007, 03:02 am

the intro riff is good.

I want to post or [tab]
guest
You may want to rate the tab now too:
select rating
Please do not post tabs as comments. Select "correction" instead!