Oops, an error
Loading. Please wait.

Beer Tab

version 4
version 4

Whole song

16,278 views 6 this week
no commentswrite comment
1 2 3 4 5
excellent!
x 7
add to favorites
launch autoscroll
font size
0
reset
how to read this tab
guitar tuner
Tab Pro tools
  • play this tab
  • loop segment
  • change instrument
  • show fretboard
  • metronome
×
Best way to learn
"Beer"
Autoscroll
slow
fast
+/-
esc
set tempo
stop
Contributor
Great song. I learnt it using the other tabs on this site, but before
performing it I changed quite a few things to make it more accurate in my
opinion. So here's what I play.

Rhythm/Verse (Clean): 
    A              F              C              G 
e |-5-5--5--5--5-|-1-1--1--1--1-|-x-x--x--x--x-|-3-3--3--3--3-| 
b |-5-5--5--5--5-|-1-1--1--1--1-|-5-5--5--5--5-|-3-3--3--3--3-| 
g |-5-5--5--5--5-|-2-2--2--2--2-|-5-5--5--5--5-|-4-4--4--4--4-| x8 
d |-7-7--7--7--7-|-3-3--3--3--3-|-5-5--5--5--5-|-5-5--5--5--5-| 
a |--------------|--------------|--------------|--------------| 
E |--------------|--------------|--------------|--------------| 

Lead (distorted): Comes in after two counts of the rhythm part. 
e |-5---5---5-------------------------10---12---12---10---------10~-| 
b |-------------5---/---10~-----13------------------------13--------| 
g |-----------------------------------------------------------------| 
d |-----------------------------------------------------------------| 
a |-----------------------------------------------------------------| 
E |-----------------------------------------------------------------| 

e |------------------------|---------------------| 
b |-10p8-------------------|---------------------| 
g |------9-7--5--7-----5---|---------5-7--9b-----| 
d |-----------------7------|-----5-7-------------| 
a |------------------------|--7------------------| 
E |------------------------|---------------------| 


The solo ends two ways. On the Everything Sucks recording you have this
almost inaudible bit at the end which I don't really like personally. 

e |--------------------------| 
b |--------------------------| 
g |-7p5--7---5-----5---------| 
d |--------------7-----7--5--| 
a |--------------------------| 
E |--------------------------| 

Or you can end it on the third note with a vibrato like they do on their live album: 
e |----------------------| 
b |----------------------| 
g |--------7p5--7~-------| 
d |----------------------| 
a |----------------------| 
E |----------------------| 

Pre-Chorus: This comes in in the last two bars of each verse 
      C       G 
e |-------|-------| 
b |-------|-------| 
g |---5---|-------| 
d |---5---|---5---| 
a |---3---|---5---| 
E |-------|---3---| 


Chorus: 
     F           C           G           G 
e |-----------|-----------|-----------|-----------| 
b |-----------|-----------|-----------|-----------| 
g |-----------|--5-5-5-5--|-----------|-----------| x4 
d |--3-3-3-3--|--5-5-5-5--|--5-5-5-5--|--5-5-5-5--| 
a |--3-3-3-3--|--3-3-3-3--|--5-5-5-5--|--5-5-5-5--| 
E |--1-1-1-1--|-----------|--3-3-3-3--|--3-3-3-3--| 


Lead (distorted): Comes in after two counts of the rhythm part. 

e |-5---5---5-------------------------10---12---12---10---------10~-| 
b |-------------5---/---10~-----13------------------------13--------| 
g |-----------------------------------------------------------------| 
d |-----------------------------------------------------------------| 
a |-----------------------------------------------------------------| 
E |-----------------------------------------------------------------| 

e |------------------------|---------------------| 
b |-10p8-------------------|---------------------| 
g |------9-7--5--7-----5---|---------5-7--9b-----| 
d |-----------------7------|-----5-7-------------| 
a |------------------------|--7------------------| 
E |------------------------|---------------------| 

e |----------------------| 
b |----------------------| 
g |--------7p5--7~-------| 
d |----------------------| 
a |----------------------| 
E |----------------------| 


Rhythm/Verse (Clean): 
    A              F              C              G 
e |-5-5--5--5--5-|-1-1--1--1--1-|-x-x--x--x--x-|-3-3--3--3--3-| 
b |-5-5--5--5--5-|-1-1--1--1--1-|-5-5--5--5--5-|-3-3--3--3--3-| 
g |-5-5--5--5--5-|-2-2--2--2--2-|-5-5--5--5--5-|-4-4--4--4--4-| x8 
d |-7-7--7--7--7-|-3-3--3--3--3-|-5-5--5--5--5-|-5-5--5--5--5-| 
a |--------------|--------------|--------------|--------------|
E |--------------|--------------|--------------|--------------| 


Pre-Chorus: 
      C       G 
e |-------|-------| 
b |-------|-------| 
g |---5---|-------| 
d |---5---|---5---| 
a |---3---|---5---| 
E |-------|---3---| 


Chorus: 
     F           C           G           G 
e |-----------|-----------|-----------|-----------| 
b |-----------|-----------|-----------|-----------| 
g |-----------|--5-5-5-5--|-----------|-----------| x4 
d |--3-3-3-3--|--5-5-5-5--|--5-5-5-5--|--5-5-5-5--| 
a |--3-3-3-3--|--3-3-3-3--|--5-5-5-5--|--5-5-5-5--| 
E |--1-1-1-1--|-----------|--3-3-3-3--|--3-3-3-3--| 

Solo: 

e |----------------------|--------------|---------------------| 
b |--10--10--10p8-----8--|--------------|-----------7b--------| 
g |----------------9-----|--9--8--7--5--|-----5--7--7b--7-----| 
d |----------------------|--------------|--7---------------7~-| 
a |----------------------|--------------|---------------------| 
E |----------------------|--------------|---------------------| 

e |------------------------------|---------------------------| 
b |------------------------------|---------------------------| 
g |------------------------------|--------7b--7b-7b--7p5-----| 
d |-----------7---------------7--|--5--7------------------7--| 
a |------------------------------|---------------------------| 
E |--5--5--5-----5-5--5--5--5----|---------------------------| 

e |-------------------------------------|-----------------------| 
b |-------------------------------------|-----------------------| 
g |-------------------------------------|--19b--19b--19p17------| 
d |--5/7--5-5-5--5-5---5/7--5-5-5--5-5--|-------------------17--| 
a |--x/x--x-x-x--x-x---x/x--x-x-x--x-x--|-----------------------| 

E |--3/5--5-5-5--5-5---3/5--5-5-5--5-5--|-----------------------| 
e |--17-17-17-17-17-17--20-20-20-20-20-20--22-22-22-22-22-22--| 
b |--17-17-17-17-17-17--20-20-20-20-20-20--22-22-22-22-22-22--| 
g |-----------------------------------------------------------| 
d |-----------------------------------------------------------| 
a |-----------------------------------------------------------| 
E |-----------------------------------------------------------| 


Half time bit (In half time): Rhythm plays this: 
     A         F         C         G 
e |--5---5--|--1---1--|--x---x--|--x---x--| 
b |--5---5--|--1---1--|--5---5--|--x---x--| 
g |--5---5--|--2---2--|--5---5--|--x---x--| x8 
d |--7---7--|--3---3--|--5---5--|--x---x--| 
a |---------|---------|---------|---------| 
E |---------|---------|---------|---------| 


While lead (distorted plays this: 
    A         F         C         G 
e |---------|---------|---------|------------------| 
b |---------|---------|---------|--7b--------------| 
g |---------|---------|---------|--7b--7p5---------| 
d |---------|---------|---------|-----------7\0----| 
a |---------|---------|---------|------------------| 
E |---------|---------|---------|------------------| 


    A         F         C         G  
e |---------|---------|---------|-------------------------| 
b |---------|---------|---------|-------------------------| 
g |---------|---------|---------|----------------5--7--5--| 
d |---------|---------|---------|----------5--7-----------| 
a |---------|---------|---------|----5--7-----------------|
E |---------|---------|---------|--5----------------------| 


Pre-Chorus: 
      C       G
e |-------|------------------------------------------| 
b |-------|------------------------------------------| 
g |---5---|------------------------------------------| 
d |---5---|---5-5-5-5-5-5-5-5/17-17-17-17-17-17-17-17| 
a |---3---|---5-5-5-5-5-5-5-5/17-17-17-17-17-17-17-17| 
E |-------|---3-3-3-3-3-3-3-3/15-15-15-15-15-15-15-15| 


Chorus: 
     F           C           G           G
e |-----------|-----------|-----------|-----------| 
b |-----------|-----------|-----------|-----------| 
g |-----------|--5-5-5-5--|-----------|-----------| x4 
d |--3-3-3-3--|--5-5-5-5--|--5-5-5-5--|--5-5-5-5--| 
a |--3-3-3-3--|--3-3-3-3--|--5-5-5-5--|--5-5-5-5--| 
E |--1-1-1-1--|-----------|--3-3-3-3--|--3-3-3-3--| 


Woah woah woah woah! (Distorted): 
     A           F           C           G 
e |-----------|-----------|-----------|-----------| 
b |-----------|-----------|-----------|-----------| 
g |-----------|-----------|--5-5-5-5--|-----------| x4 
d |--7-7-7-7--|--3-3-3-3--|--5-5-5-5--|--5-5-5-5--| 
a |--7-7-7-7--|--3-3-3-3--|--3-3-3-3--|--5-5-5-5--| 
E |--5-5-5-5--|--1-1-1-1--|-----------|--3-3-3-3--|


Lead (distorted): Comes in after two counts of the rhythm part. 

e |-5---5---5-------------------------10---12---12---10---------10~-| 
b |-------------5---/---10~-----13------------------------13--------| 
g |-----------------------------------------------------------------| 
d |-----------------------------------------------------------------| 
a |-----------------------------------------------------------------| 
E |-----------------------------------------------------------------| 

e |------------------------|---------------------| 
b |-10p8-------------------|---------------------| 
g |------9-7--5--7-----5---|---------5-7--9b-----| 
d |-----------------7------|-----5-7-------------| 
a |------------------------|--7------------------| 
E |------------------------|---------------------|

e |----------------------| 
b |----------------------| 
g |--------7p5--7~-------| 
d |----------------------| 
a |----------------------| 
E |----------------------| 


Outro: 
e |------------------------------------------------------------------------| 
b |------------------------------------------------------------------------| 
g |-14-14--14--14--14--10-10--10--10--10--5-5--5--5--5--12-12--12--12--12--| 
d |--x--x---x---x---x---x--x---x---x---x--x-x--x--x--x---x--x---x---x---x--| 
a |-12-12--12--12--12---8--8---8---8---8--3-3--3--3--3--10-10--10--10--10--| 
E |------------------------------------------------------------------------| 

repeat twice and your done I have my doubts about the last pre-chorus and
the main solo, so feel free to send me any corrections. 

D is for Dennis. 

- GreenSmoke 
comments
print report bad tab
I want to post or [tab]
guest
You may want to rate the tab now too:
select rating
Please do not post tabs as comments. Select "correction" instead!