Oops, an error
Loading. Please wait.

Boys Dont Cry Tab

version 1
version 1

Whole song

Interactive

599 views 6 this week
no commentswrite comment
1 2 3 4 5
please rate
add to favorites
launch autoscroll
font size
0
reset
how to read this tab
guitar tuner
Autoscroll
slow
fast
+/-
esc
set tempo
stop
Help us to improve Ultimate-Guitar.com Take our survey!
×
Author
Difficulty
intermediate
Guitar: Aaron Barrett
Tuning: Standard


Intro (0.00 – 0.09)
   Clean                                 Distortion
E—-33-3-3-33h5-5-5-5-22-2-222---------------|
B—-33-3-3-33h5-5-5-5-22-2-222---------------|
G—-44-4-4-44h5-5-5-5-33-3-333-5—------------|   2x
D—-55-5-5-55h7-7-7-7-44-4-444-5-------------|
A-----------------------------3---3-2-0-----|
E--------------------------------------(3)--|

(0.10 – 0.19)
   Clean
E—-33-3-3-33h5-5-5-5-22-2-222-3-3-3-333--|
B—-33-3-3-33h5-5-5-5-22-2-222-5-5-5-555--|
G—-44-4-4-44h5-5-5-5-33-3-333-5—5-5-555--|  2x
D—-55-5-5-55h7-7-7-7-44-4-444-5-5-5-555--|
A----------------------------------------|
E----------------------------------------|

(0.20 – 0.24)
   Clean                                 Distortion
E—-33-3-3-33h5-5-5-5-22-2-222---------------|
B—-33-3-3-33h5-5-5-5-22-2-222---------------|
G—-44-4-4-44h5-5-5-5-33-3-333-5—------------|
D—-55-5-5-55h7-7-7-7-44-4-444-5-------------|
A-----------------------------3---3-2-0-----|
E--------------------------------------(3)--|

Verse (0.25 – 0.34)
   Clean                                                    Distortion
E—-3—-3—-5--5—-2—-2--3--3--3—-3—-5--5—-2—-2-------------|
B—-3--3--5--5--2--2--5--5--3--3--5--5--2--2-------------|
G—-4—-4--5--5--3--3--5—-5--4—-4--5--5--3--3--5—xxxxxxx--|
D—-5--5--7--7--4--4--5--5--5--5--7--7--4--4--5-xxxxxxx--|
A--------------------------------------------3-xxxxxxx--|
E-------------------------------------------------------|

PreChorus (0.35 – 0.43)
   Distortion
E—----------------------------------------------------------------|
B—----------------------------------------------------------------|
G—----------------------------------------------------------------|
D—-9-99-999-7-77-777-9-99-999----p7----9-99-999-7-77-777-9-99-999-|
A--9-99-999-7-77-777-9-99-999-------7--9-99-999-7-77-777-9-99-999-|
E--7-77-777-5-55-555-7-77-777-5-8------7-77-777-5-55-555-7-77-777-|

E—-------------|
B—-------------|
G—-------------|
D—-10-x-x-x-x--|
A—-10-x-x-x-x--|
E---8-x-x-x-x--|

Chorus (0.44 – 0.54)
   Clean
E—-33-3-3-33h5-5-5-5-22-2-222-3-3-3-333--|
B—-33-3-3-33h5-5-5-5-22-2-222-5-5-5-555--|
G—-44-4-4-44h5-5-5-5-33-3-333-5—5-5-555--|
D—-55-5-5-55h7-7-7-7-44-4-444-5-5-5-555--|
A----------------------------------------|
E----------------------------------------|

   Clean                                 Distortion
E—-33-3-3-33h5-5-5-5-22-2-222---------------|
B—-33-3-3-33h5-5-5-5-22-2-222---------------|
G—-44-4-4-44h5-5-5-5-33-3-333-5—------------|
D—-55-5-5-55h7-7-7-7-44-4-444-5-------------|
A-----------------------------3---3-2-0-----|
E--------------------------------------(3)--|

Verse (0.55 – 1.04)

PreChorus (1.05 – 1.13)

Chorus (1.14 – 1.24)

Verse (1.25 – 1.35)

   Clean                                                    Distortion
E—-3—-3—-5--5—-2—-2--3--3--3—-3—-5--5—-2—-2-----------|
B—-3--3--5--5--2--2--5--5--3--3--5--5--2--2-----------|
G—-4—-4--5--5--3--3--5—-5--4—-4--5--5--3--3--5—5------|
D—-5--5--7--7--4--4--5--5--5--5--7--7--4--4--5-5-4-4--|
A--------------------------------------------3-3-4-4--|
E------------------------------------------------2-2--|

Bridge (1.36 – 1.52)
   Distortion
E—-------------------------------------------------------------------|
B—-------------------------------------------------------------------|
G—----------------------------------7-9------------------------------|
D—-9-xxx9--7-xxx7--9-xxx9-------7-9-----9-xxx9--7-xxx7--99-999-9-10--|
A--9-xxx9--7-xxx7--9-xxx9-----7---------9-xxx9--7-xxx7—-99-999-9-10--|
E--7-xxx7--5-xxx5--7-xxx7-5-8-----------7-xxx7--5-xxx5—-77-777-7--8--|

E—---------------------------------------------|
B—---------------------------------------------|
G—---------------------------------------------|  2x
D—--55-555-5-77-777-7-99-999-9-1010-101010-10--|
A—--55-555-5-77-777-7-99-999-9-1010-101010-10--|
E---33-333-3-55-555-5-77-777-7—-8-8—-8-8-8--8--|

Chorus (1.53 – 2.08)
   Clean
E—-33-3-3-33h5-5-5-5-22-2-222-3-3-3-333--|
B—-33-3-3-33h5-5-5-5-22-2-222-5-5-5-555--|
G—-44-4-4-44h5-5-5-5-33-3-333-5—5-5-555--|  3x
D—-55-5-5-55h7-7-7-7-44-4-444-5-5-5-555--|
A----------------------------------------|
E----------------------------------------|

End (2.09 – 2.16)
   Clean         Distortion
E—-3~---5~---2~------------------|
B—-3~---5~---2~------------------|
G—-4~---5~---3~---5--------------|
D—-5~---7~---4~---5--------------|
A----------------3---3-2-0-------|
E--------------------------3-----|
Suggest correction
What's this?
You can suggest a correction to this tab. Community and Mods will review your correction and vote to approve or reject it.
comments
We did not receive enough feedback on this tab! Please rate:
print report bad tab
1 2 3 4 5
guest
You may want to rate the tab now too:
select rating
Please do not post tabs as comments. Select "correction" instead!