Oops, an error
Loading. Please wait.

Cheer Up bass

version 1
version 1

Whole song

Interactive

2,114 views 1 this week
2 commentsread comments
1 2 3 4 5
x 3
add to favorites
×
Save as Personal and add changes to this tab that will be seen only by you. Learn more ›
×
You can save this tab as Personal to edit and correct it or add notes. All changes will be seen only by you. Learn more »
launch autoscroll
font size
0
reset
guitar tuner
edit
Autoscroll
slow
fast
+/-
esc
set tempo
stop
Author
Difficulty
Tabbed By : Xcrimson_ghostX
e-mail: skawful27@aim.com

Tuning: standard

Intro/verse
G|-----------|
D|-----------|
A|--4-22-----|
E|-------22--|

Prechorus
G|-----------------------|
D|----6---------1346431--|
A|---6-6--6-86-2---------|
E|--4----4---------------|

Chorus
G|--------------31-----------------------------31---------666666666--|
D|-----6434-31--------6434431---1----6434-31---------6434------------|
A|--44--------4----44---------4---44---------4----44-----------------|
E|-------------------------------------------------------------------|

Bridge
G|-------------------------|
D|-------------------------|
A|-------------------2222--|
E|--6-7-6-7-6-7-4444-------|

| /  slide up
| \  slide down
| h  hammer-on
| p  pull-off
| ~  vibrato
| +  harmonic
| x  Mute note
===============================================================================

            
            
Suggest correction
Creating personal tab
Creating personal tab
You can edit any tab online and save it as your Personal.

You can edit, replace or remove any tab part or add personal notes – all changes will be seen only by you.

Personal tabs can be accessed anytime from any device, even offline.
Learn more »
Give kudos to tab author, rate the tab!
1 2 3 4 5
comments
print report bad tab
2 comments total.
+1 reply
VanguardBeta 10 Mar 06, 2009 06:53 AM

Nicely done man, thank you for tabbing this. 5 stars.

0 reply
exesandohs3773 10 Jul 24, 2009 10:59 AM

Really awesome job! This worked out perfectly.

guest
You may want to rate the tab now too:
select rating
Wanna post a correction for this tab? Suggest correction