Oops, an error
Loading. Please wait.

Cheer Up tab

version 3
version 3

Whole song

Interactive

2,694 views 1 this week
no commentswrite comment
1 2 3 4 5
3 more votes to show rating
add to favorites
×
Save as Personal and add changes to this tab that will be seen only by you. Learn more ›
×
You can save this tab as Personal to edit and correct it or add notes. All changes will be seen only by you. Learn more »
launch autoscroll
font size
0
reset
how to read this tab
guitar tuner
edit
Autoscroll
slow
fast
+/-
esc
set tempo
stop
Author
Difficulty
Tuning: Normal (E,A,D,G,B,e)
Timing: 3/4

INTRO
Guitar 1 (lead):
e|---------------------------------------------------|
B|---------------------------------------------------|
G|-/8-\6~~~---------------//11-\10b(11)r(10)-b-r-b-r-|
D|---------------------------------------------------|
A|---------------------------------------------------|
E|---------------------------------------------------|

e|---------------------------------------------------|
B|---------------------------------------------------|
G|-/8-6-6-6-4-4-4--3-3-4-6-3b(4)r(3)\1~~~------------|
D|---------------------------------------------------|
A|---------------------------------------------------|
E|---------------------------------------------------|

INTRO/VERSE
Guitar 2 (rhythm):
e|---------------------------------------------------|
B|---------------------------------------------------|
G|-6--x-xx-xx-x4--4--------6--x-xx-xx-x4--4----------|
D|-6--x-xx-xx-x4--4--6--6--6--x-xx-xx-x4--4--6--6----|
A|-4--x-xx-xx-x2--2--6--6--4--x-xx-xx-x2--2--6--6----|
E|-------------------4--4--------------------4--4----|

PRE-CHORUS
Both guitars
e|---------------------------------------------------|
B|---------------------------------------------------|
G|-------------------------4--4--4--4--4--4--4--4----|
D|-6-—6--6-—6-—6--6—-6--6--4--4--4--4--4--4--4--4----|
A|-6--6--6--6--6--6--6--6--2--2--2--2--2--2--2--2----|
E|-4--4--4--4--4--4--4--4----------------------------|

CHORUS
Both Guitars
e|---------------------------------------------------|
B|---------------------------------------------------|
G|-6--6--6--6-6-4--4--------6--6--6--6-6-4--4--------|
D|-6--6--6--6-6-4--4--6--6--6--6--6--6-6-4--4--6--6--|
A|-4--4--4--4-4-2--2--6--6--4--4--4--4-4-2--2--6--6--|
E|--------------------4--4---------------------4--4--|

BRIDGE PART I
Both guitars
e|---------------------------------------------------|
B|---------------------------------------------------|
G|-6666666666664--4--------6666666666664--4----------|
D|-6666666666664--4--6--6--6666666666664--4--6--6----|
A|-4444444444442--2--6--6--4444444444442--2--6--6----|
E|-------------------4--4--------------------4--4----|

BRIDGE PART II
Okay this part’s played on the trumpet but I thought I’d just tab it anyway
e|---------------------------------------------------|
B|-6~~---------9--9--7-9-7—-6~~---------4--4--4--6---|
G|---------------------------------------------------|
D|---------------------------------------------------|
A|---------------------------------------------------|
E|---------------------------------------------------|


Sequence:
Guitar 1(lead)		Guitar 2(rhythm)
INTRO	        x1	INTRO/VERSE	       x2
[no lead in verse]	INTRO/VERSE	       x2
PRE-CHORUS	        x1   PRE-CHORUS	       x1
CHORUS	        x2	CHORUS	       x2
INTRO (2nd half)     x1	INTRO/VERSE 	half
[verse]		INTRO/VERSE	       x2
PRE-CHORUS	        x1	PRE-CHORUS	       x1
CHORUS	        x2	CHORUS	       x2
BRIDGE part I        x2	BRIDGE part II      x2
BRIDGE part II       x4	CHORUS	       x4

            
            
Suggest correction
Creating personal tab
Creating personal tab
You can edit any tab online and save it as your Personal.

You can edit, replace or remove any tab part or add personal notes – all changes will be seen only by you.

Personal tabs can be accessed anytime from any device, even offline.
Learn more »
Give kudos to tab author, rate the tab!
1 2 3 4 5
comments
print report bad tab
guest
You may want to rate the tab now too:
select rating
Wanna post a correction for this tab? Suggest correction