Oops, an error
Loading. Please wait.

Dont Stop Skankin bass

1,688 views 21 this week
no commentswrite comment
1 2 3 4 5
1 last vote to show rating
add to favorites
×
Save as Personal and add changes to this tab that will be seen only by you. Learn more ›
×
You can save this tab as Personal to edit and correct it or add notes. All changes will be seen only by you. Learn more »
launch autoscroll
font size
0
reset
guitar tuner
edit
Autoscroll
slow
fast
+/-
esc
set tempo
stop
Author
Difficulty
Artist: Reel Big Fish
Song: Dont Stop Skankin
Album: Candy Coated Fury
Tuning: Standard (GDAE) (Derek uses a 5 string bass, but it can be done on a 4 string)

I used this live video as you can hear the bass a lot clearer than on the cd:
http://www.youtube.com/watch?v=CItXEu8R-iE

Key:
/ = Slide up to
\ = slide down
~ = let ring
h = hammer on
p = pull off

Intro riff
G|-------------|
D|-/7-7-5------|
A|---------8-7-|
E|-------------|

Riff 1                   x4 1,3,     2,4
G|-------------------------|---------|-------|
D|-------------------------|---5-----|-88-7~-|
A|-5-7-8-7-0-------5-7-8-7-|-5---8-7-|-------|
E|-----------3-1-0---------|---------|-------|

Riff 2 x1
G|---------------------------------------------------------------|
D|---------------------------------------------------------------|
A|---2-5-2---5-2-----5-8-5---8-5-----4-7-4---4-7-4---------------|
E|-3-------3-----3-6-------6-----6-5-------5-------5-55-55-55-55-|

Riff 3 x3
G|-----------------------------------|
D|------------------8-10-8-5-7-5-----|
A|-5-7-8-7-10-8-7-8--------------8-7-|
E|-----------------------------------|

Riff 3 variation x1 (Plays the last part down an octave)
G|----------------------------------|
D|----------------------------------|
A|-5-7-8-7-10-8-7-8-1-3-1---0-------|
E|------------------------3---3-1-0-|

Riff 2 x1, 
Intro riff x1, 
Riff 1 as before, 
Riff 2 x1,
Riff 3 x3,
Riff 3 variation x1,
Riff 2 x1,
Intro riff x1,
Riff 1 as before

Riff 4                      x4 1,       2, (10s) 3, (Play fast)    4 (10s again)
G|----------------------------|---------|---------|-----------------|--------------------|
D|------------7---------------|---------|-1010-9~-|-10h12p10-797----|-1010-9~------------|
A|-7-9-10-9-7---10-9-7-9-10-9-|-7-------|---------|-------------109-|---------1010-9~-7\-|
E|----------------------------|---5-3-2-|---------|-----------------|--------------------|


            
            
Suggest correction
Creating personal tab
Creating personal tab
You can edit any tab online and save it as your Personal.

You can edit, replace or remove any tab part or add personal notes – all changes will be seen only by you.

Personal tabs can be accessed anytime from any device, even offline.
Learn more »
Give kudos to tab author, rate the tab!
1 2 3 4 5
comments
print report bad tab
guest
You may want to rate the tab now too:
select rating
Wanna post a correction for this tab? Suggest correction