Oops, an error
Loading. Please wait.

Good Thing ukulele

version 1
version 1

Whole song

Interactive

228 views 1 this week
no commentswrite comment
1 2 3 4 5
3 more votes to show rating
add to favorites
×
Save as Personal and add changes to this tab that will be seen only by you. Learn more ›
×
You can save this tab as Personal to edit and correct it or add notes. All changes will be seen only by you. Learn more »
launch autoscroll
font size
0
reset
transpose
0
reset
display chords
guitar tuner
edit
Autoscroll
slow
fast
+/-
esc
set tempo
stop
Strumming
There is no strumming pattern for this song yet. and get +5 IQ
Artist-Reel Big Fish
Song-Good Thing
Album-Cheer Up!
Tabbed by-Duncan S

Ok first of all, i don't think there are enough RBF tabs on this site, they're so
its sad. Enjoy =]

In this song there are two guitars (Aaron and Scott) Scott plays pretty much all the
stuff as Aaron except for a few parts, i'll put these other parts underneath the normal one
guitar 2 above it.

b=bend (the note after it will be what you bend up to)
hb=hold bend
r=return the bend to the original note
qb=quick bend
pm-----=palm mute
h=hammer on
p=pull off
/=slide up
\=slide down
~=vibrato/tremelo

Intro           pm---
e|--------------------|
B|--------------------|
G|-5-55----3-33-------|
D|-5-55-5--3-33-3-333-| x2
A|-3-33-5--1-11-3-333-|
E|------3-------1-111-|

note: on the slide i do it from 1 to about 9 then back again but it     doesnt really matter
                    pm---
e|------------------------|
B|------------------------|
G|-5-55--------3-33-------|
D|-5-55-5-/-\--3-33-3-333-| x2
A|-3-33-5-/-\--1-11-3-333-|
E|------3-/-\-------1-111-|
                pm---
e|--------------------|
B|--------------------|
G|-5-55----3-33-------|
D|-5-55-5--3-33-3-333-| x2
A|-3-33-5--1-11-3-333-|
E|------3-------1-111-|

Verse
e----------------|
B----------------|
G-5-55----3-33---|
D-5-55-5--3-33-3-| x3
A-3-33-5--1-11-3-|
E------3-------1-|

note: release the palm mute gradually towards the end
         pm-------------------|
e-----------------------------|
B-----------------------------|
G-5-55------------------------|
D-5-55-5-\-3333333333333333---|
A-3-33-5-\-3333333333333333---|
E------3-\-1111111111111111---|

guitar 2 pm-------------------|
e-----------------------------|
B-----------------/66666666---|
G-5-55------------------------|
D-5-55-5-\-33333333-----------|
A-3-33-5-\-33333333-----------|
E------3-\-11111111-----------|

Chorus
e-------------------|
B-------------------|
G-55-7-777----------|
D-55-7-777-33-5-555-| x4
A-33-5-555-33-5-555-|
E----------11-3-333-|

e---------------|
B---------------|
G-5-55-7--------|
D-5-55-7-3-33-5-|
A-3-33-5-3-33-5-|
E--------1-11-3-|

note:the solo actually starts when Aaron goes o-o-oh after the chorus

Solo 1
e--------------------------------------------------|
B--------------------------------------------------|
G-----5b7----7b8r7-5-------5-5b7r5--------------5~-|
D-5-7-----7-----------5-7----------7--7-7b8r7-5----|
A--------------------------------------------------|
E--------------------------------------------------|

guitar 2       pm---
e--------------------|
B--------------------|
G-5-55----3-33-------|
D-5-55-5--3-33-3-333-| x2
A-3-33-5--1-11-3-333-|
E------3-------1-111-|

Interlude      pm--------------------|
e------------------------------------|
B------------------------------------|
G-2------------------------5---------|
D-2----------2---33333333--5-5-------|
A-0--3-2-0---2---33333333--3-5-------|
E----------3-0---11111111----3-------|
               pm--------------------|
e------------------------------------|
B------------------------------------|
G-2----------------------------------|
D-2----------2---33333333-55555555---|
A-0--3-2-0---2---33333333-55555555---|
E----------3-0---11111111-33333333---|

Solo 2
e------------------------/17~-17-15----------15----|
B-15b17-15hb17-17r15-13~------------18-17-18-------|
G-----------------------------------------------17-|
D--------------------------------------------------|
A--------------------------------------------------|
E--------------------------------------------------|

e---------------------------------------------15-----15-|
B---------------------------------------15hb17--hb17----|
G-----------------14-17-17-17-----14-17-----------------|
D-17-17-17--17-17--------------17-----------------------|
A-------------------------------------------------------|
E-------------------------------------------------------|

e----------------131415------------------------------|
B-17r15-13--17-17------17--17-15h17p15------14-------|
G-------------------------------------17-12---15-14\-|
D----------------------------------------------------|
A----------------------------------------------------|
E----------------------------------------------------|

note: the last sectoin of the solo is when Aaron's going 1,2,3 and the 20 is on the woo!
e--------------------------------------------20\-|
B-----------------------------------------13-----|
G---------------------------------------12-------|
D-15-14-15----12b13r12-------------12b13---------|
A----------15----------15-12-----15--------------|
E---------------------------15-------------------|

Outro Chorus
e-----------------|
B-----------------|
G-55-7-77---------|
D-55-7-77-33-5-55-| x12 (i think) towards the end fade out
A-33-5-55-33-5-55-|
E---------11-3-33-|

Arrangement:
Intro
Verse
Chorus
Solo 1
Verse
Chorus
Interlude
Solo 2
Outro Chorus

I've looked everywhere and the solos are way off so i think this is the most accurate 
Skank on!

            
            
Suggest correction
Creating personal tab
Creating personal tab
You can edit any tab online and save it as your Personal.

You can edit, replace or remove any tab part or add personal notes – all changes will be seen only by you.

Personal tabs can be accessed anytime from any device, even offline.
Learn more »
Give kudos to tab author, rate the tab!
1 2 3 4 5
comments
print report bad tab
guest
Wanna post a correction for this tab? Suggest correction