Oops, an error
Loading. Please wait.

I Know You Too Well To Like You Anymore tab

version 2
version 2

Whole song

Interactive

481 views 3 this week
1 commentread comment
1 2 3 4 5
x 5
add to favorites
×
Save as Personal and add changes to this tab that will be seen only by you. Learn more ›
×
You can save this tab as Personal to edit and correct it or add notes. All changes will be seen only by you. Learn more »
launch autoscroll
font size
0
reset
how to read this tab
guitar tuner
edit
Autoscroll
slow
fast
+/-
esc
set tempo
stop
I remember this song from over three years ago and realized no one tried for the entire song. So I figured I
might as well try something catchy, yet fun.

Intro: e|---------------------------------|
       B|---------------------------------|
       G|-------------------------66-xxxx-| X2
       D|-66-xxxx-33-xxxx-44-xxxx-66-xxxx-|
       A|-66-xxxx-33-xxxx-44-xxxx-44-xxxx-|
       E|-44-xxxx-11-xxxx-22-xxxx---------|

          Hey!    Ho!     Hey!    Ho!

          Hey!    Ho!     Hey!    Ho!

Chorus: e|-------------------------------------|
        B|-------------------------------------|
        G|-------------------6-x6-x66-8-x8-x88-| X2
        D|-6-x6-x66-3-x3-x33-6-x6-x66-8-x8-x88-|
        A|-6-x6-x66-3-x3-x33-4-x4-x44-6-x6-x66-|
        E|-4-x4-x44-1-x1-x11-------------------|

           I know you too well to like you anymore

           I know you too well to like you anymore

        e|---------------------------------|
        B|---------------------------------|
        G|---------5-55555-6-66666-8-88888-|
        D|-6-66666-5-55555-6-66666-8-88888-|
        A|-6-66666-3-33333-4-44444-6-66666-|
        E|-4-44444-------------------------|

           There's a nightmare where my dream girl was. My prince charming is a bore.

        e|-----------------------|
        B|-----------------------|
        G|--------------------6~-|
        D|-6-66666-3-33333-4~-6~-|
        A|-6-66666-3-33333-4~-4~-|
        E|-4-44444-1-11111-2~----|

           I know you too well and I don't like you anymore.

Pre-Verse: e|----------------------------------|
           B|----------------------------------|
           G|-------------------------66-666-6-| X2
           D|-66-666-666-666-644-444-466-666-6-|
           A|-66-666-666-666-644-444-444-444-4-|
           E|-44-444-444-444-422-222-2---------|

Verse: e|----------------------------------|
       B|----------------------------------|
       G|-------------------------66-666-6-| X4
       D|-66-666-666-666-644-444-466-666-6-|
       A|-66-666-666-666-644-444-444-444-4-|
       E|-44-444-444-444-422-222-2---------|

          When we first started, even if you farted, I'd laugh and ask for more.

          And in the beginning we always were grinning. We didn't know what we were smiling for.

          We'd hold hands and then breakdance, or rap like Dr. Dre.

          And side by side, we'd drink all night, disgusting all our friends with our PDA.

Pre-Chorus: e|------------------------------------------|
            B|------------------------------------------|
            G|-----------8--8----6--6---8-8-8-8-8-8-888-|
            D|---3--3---8--8--8-6--6--6-8-8-8-8-8-8-888-|
            A|--3--3--36--6--6-4--4--4--6-6-6-6-6-6-666-|
            E|-1--1--1----------------------------------|

               You felt so good deep in my heart, and that's for sure.

               But now I feel sick when I'm around you. It hurts my head to think of how

Chorus: e|-------------------------------------|
        B|-------------------------------------|
        G|-------------------6-x6-x66-8-x8-x88-| X2
        D|-6-x6-x66-3-x3-x33-6-x6-x66-8-x8-x88-|
        A|-6-x6-x66-3-x3-x33-4-x4-x44-6-x6-x66-|
        E|-4-x4-x44-1-x1-x11-------------------|

           I know you too well to like you anymore

           I know you too well to like you anymore

        e|---------------------------------|
        B|---------------------------------|
        G|---------5-55555-6-66666-8-88888-|
        D|-6-66666-5-55555-6-66666-8-88888-|
        A|-6-66666-3-33333-4-44444-6-66666-|
        E|-4-44444-------------------------|

           I'm stuck with someone I can't stand. I can't stand you even more.

        e|-----------------------|
        B|-----------------------|
        G|--------------------6~-|
        D|-6-66666-3-33333-4~-6~-|
        A|-6-66666-3-33333-4~-4~-|
        E|-4-44444-1-11111-2~----|

           I know you too well and I don't like you anymore.

Pre-Verse: e|----------------------------------|
           B|----------------------------------|
           G|-------------------------66-666-6-| X2
           D|-66-666-666-666-644-444-466-666-6-|
           A|-66-666-666-666-644-444-444-444-4-|
           E|-44-444-444-444-422-222-2---------|

Verse: e|----------------------------------|
       B|----------------------------------|
       G|-------------------------66-666-6-| X4
       D|-66-666-666-666-644-444-466-666-6-|
       A|-66-666-666-666-644-444-444-444-4-|
       E|-44-444-444-444-422-222-2---------|

          I hate the way you always say you could find somebody else.

          And you've got me on such a tight leash that I'm starting to strangle myself.

          You criticize. I know that I'll never be what you want me to be.

          Well, you used to be such a sight for sore eyes, but now looking at you is like a knife in me.

Pre-Chorus: e|------------------------------------------|
            B|------------------------------------------|
            G|-----------8--8----6--6---8-8-8-8-8-8-888-|
            D|---3--3---8--8--8-6--6--6-8-8-8-8-8-8-888-|
            A|--3--3--36--6--6-4--4--4--6-6-6-6-6-6-666-|
            E|-1--1--1----------------------------------|

               Your heart is filled with daggers. Your kiss is like razor blades.

               You'd rather stroke that champagne bottle. I'll toss you a hand grenade!

Chorus: e|-------------------------------------|
        B|-------------------------------------|
        G|-------------------6-x6-x66-8-x8-x88-| X2
        D|-6-x6-x66-3-x3-x33-6-x6-x66-8-x8-x88-|
        A|-6-x6-x66-3-x3-x33-4-x4-x44-6-x6-x66-|
        E|-4-x4-x44-1-x1-x11-------------------|

           I know you too well to like you anymore

           I know you too well to like you anymore

        e|---------------------------------|
        B|---------------------------------|
        G|---------5-55555-6-66666-8-88888-|
        D|-6-66666-5-55555-6-66666-8-88888-|
        A|-6-66666-3-33333-4-44444-6-66666-|
        E|-4-44444-------------------------|

           You're mean and you're unfriendly. And well, you're an attention whore.

        e|-----------------------|
        B|-----------------------|
        G|--------------------6~-|
        D|-6-66666-3-33333-4~-6~-|
        A|-6-66666-3-33333-4~-4~-|
        E|-4-44444-1-11111-2~----|

           I know you too well and I don't like you

Bridge: e|----------------|
        B|----------------|
        G|-------6~----8~-|
        D|-3~-8~-6~-6~-8~-|
        A|-3~-8~-4~-6~-6~-|
        E|-1~-6~----4~----|

           But I love you. Please stay. No one makes me more miserable, so please don't go away.

        e|----------------------------------------------------------|
        B|----------------------------------------------------------|
        G|----------6-6-6-6-6-6-6-6-8-8-8-8-8-8-8-8-8-8-8-8-8-8-8-8-|
        D|-3~-8-8---6-6-6-6-6-6-6-6-8-8-8-8-8-8-8-8-8-8-8-8-8-8-8-8-|
        A|-3~-8--8--4-4-4-4-4-4-4-4-6-6-6-6-6-6-6-6-6-6-6-6-6-6-6-6-|
        E|-1~-6---6-------------------------------------------------|

           'Cause I need you always. I'll never be able to forget you. I wish that I had never met you! Yeah!

Solo: e|-----------------------------------4-8-11p8-11p8-8p6p4h6p4h8p6p4-|
      B|-----------------------------4-6-4-------------------------------|
      G|--------------5-6-8-6-5------------------------------------------|
      D|-6~-6-8h9-6-3-----------8-6~-------------------------------------|
      A|-----------------------------------------------------------------|
      E|-----------------------------------------------------------------|

      e|--8~--9-11p9-13p11-9h11h13p9~-3h4~-6-88-4p3-9-8-6-6h8p6p4~-|
      B|-9---9-9---------------------------------------------------|
      G|-----------------------------------------------------------|
      D|-----------------------------------------------------------|
      A|-----------------------------------------------------------|
      E|-----------------------------------------------------------|

Verse: e|----------------------------------|
       B|----------------------------------|
       G|-------------------------66-666-6-| X4
       D|-66-666-666-666-644-444-466-666-6-|
       A|-66-666-666-666-644-444-444-444-4-|
       E|-44-444-444-444-422-222-2---------|

          How did this all get so ugly? You became so strange.

          You're always coiled back, ready to attack: your lips curled over your vampire fangs.

          They say be careful what you wish for; it just might come your way.

          Well, I dreamed about you baby, but now I'm dreaming of my escape.

Pre-Chorus: e|------------------------------------------|
            B|------------------------------------------|
            G|-----------8--8----6--6---8-8-8-8-8-8-888-|
            D|---3--3---8--8--8-6--6--6-8-8-8-8-8-8-888-|
            A|--3--3--36--6--6-4--4--4--6-6-6-6-6-6-666-|
            E|-1--1--1----------------------------------|

               I knew you were a bad idea, but I had to have you anyway.

               Now of all my worst mistakes, this one is hear to stay!

            e|------------------------------------|
            B|------------------------------------|
            G|------------------66-xxxx-88-xxxx---| X2
            D|-66-xxxx-33-xxxx--66-xxxx-88-xxxx---|
            A|-66-xxxx-33-xxxx--44-xxxx-66-xxxx---|
            E|-44-xxxx-11-xxxx--------------------|

               You're a son of a bitch, you know that?

Chorus: e|------------------------------------|
        B|------------------------------------|
        G|------------------66-xxxx-88-xxxx---| X2
        D|-66-xxxx-33-xxxx--66-xxxx-88-xxxx---|
        A|-66-xxxx-33-xxxx--44-xxxx-66-xxxx---|
        E|-44-xxxx-11-xxxx--------------------|

           I know you too well to like you anymore

           I know you too well to like you anymore
        
        e|---------------------------------|
        B|---------------------------------|
        G|---------5-55555-6-66666-8-88888-|
        D|-6-66666-5-55555-6-66666-8-88888-|
        A|-6-66666-3-33333-4-44444-6-66666-|
        E|-4-44444-------------------------|

           There's a nightmare where my dream girl was. My prince charming is a bore.

        e|-----------------------|
        B|-----------------------|
        G|--------------------6~-|
        D|-6-66666-3-33333-4~-6~-|
        A|-6-66666-3-33333-4~-4~-|
        E|-4-44444-1-11111-2~----|

           I know you too well and I don't like you

Second Chorus: e|-------------------------------------|
               B|-------------------------------------|
               G|-------------------6-x6-x66-8-x8-x88-| X2
               D|-6-x6-x66-3-x3-x33-6-x6-x66-8-x8-x88-|
               A|-6-x6-x66-3-x3-x33-4-x4-x44-6-x6-x66-|
               E|-4-x4-x44-1-x1-x11-------------------|

                  I know you too well to like you anymore

                  I know you too well to like you anymore

               e|---------------------------------|
               B|---------------------------------|
               G|---------5-55555-6-66666-8-88888-|
               D|-6-66666-5-55555-6-66666-8-88888-|
               A|-6-66666-3-33333-4-44444-6-66666-|
               E|-4-44444-------------------------|

                  I'm stuck with someone I can't stand. Well, I can't stand you even more!
        
               e|-----------------------|
               B|-----------------------|
               G|--------------------6~-|
               D|-6-66666-3-33333-4~-6~-|
               A|-6-66666-3-33333-4~-4~-|
               E|-4-44444-1-11111-2~----|

                  I know you too well and I don't like you

Fight Verse: e|-------------------------------------|
             B|-------------------------------------|
             G|-------------------6-66-666-8-88-888-| X2
             D|-6-66-666-3-33-333-6-66-666-8-88-888-|
             A|-6-66-666-3-33-333-4-44-444-6-66-666-|
             E|-4-44-444-1-11-111-------------------|

                You're a slut. You're a dick. You're a whore. You're a prick. You make me fucking sick.

                You've got no tits. Well, you're a needle dick. I'm so sick of your shit.

             e|---------------------------------|
             B|---------------------------------|
             G|---------5-55555-6-66666-8-88888-|
             D|-6-66666-5-55555-6-66666-8-88888-|
             A|-6-66666-3-33333-4-44444-6-66666-|
             E|-4-44444-------------------------|

                Well you're a hag. And you're a drag. You drive me fucking mad.

             e|-----------------------|
             B|-----------------------|
             G|--------------------6~-|
             D|-6-66666-3-33333-4~-6~-|
             A|-6-66666-3-33333-4~-4~-|
             E|-4-44444-1-11111-2~----|

                Well I wish you'd go to hell, but I love you. Oh well...

Outro: e|---------------------------------|
       B|---------------------------------|
       G|-------------------------66-xxxx-| X3
       D|-66-xxxx-33-xxxx-44-xxxx-66-xxxx-|
       A|-66-xxxx-33-xxxx-44-xxxx-44-xxxx-|
       E|-44-xxxx-11-xxxx-22-xxxx---------|

          Hey!    Ho!     Hey!    Ho!

          Hey!    Ho!     Hey!    Ho!

          Hey!    Ho!     Hey!    Ho!
Suggest correction
Creating personal tab
Creating personal tab
You can edit any tab online and save it as your Personal.

You can edit, replace or remove any tab part or add personal notes – all changes will be seen only by you.

Personal tabs can be accessed anytime from any device, even offline.
Learn more »
comments
print report bad tab
1 comment total.
-2 reply
thansen051 10 Jan 30, 2016 12:40 AM

didn't like this contribution

guest
You may want to rate the tab now too:
select rating
Wanna post a correction for this tab? Suggest correction