Oops, an error
Loading. Please wait.

Im Her Man tab

103 views 1 this week
no commentswrite comment
1 2 3 4 5
3 more votes to show rating
add to favorites
×
Save as Personal and add changes to this tab that will be seen only by you. Learn more ›
×
You can save this tab as Personal to edit and correct it or add notes. All changes will be seen only by you. Learn more »
launch autoscroll
font size
0
reset
how to read this tab
guitar tuner
edit
Autoscroll
slow
fast
+/-
esc
set tempo
stop
Author
Difficulty
Hey all, Ive wanted to tab this for a long time. I finally got round to it. This is the everything
sucks version so there aren't as any fills and there is no solo REMEMBER LEFT HAND MUTE ON THE ON-BEAT WITH
A DOWN-STROKE, THEN PLAY ON THE OFF-BEAT WITH AN UPSTROKE. Use lots of treble on your amp, set it to about 10
with Bass:5 and Mids:7 Try to hit mainly the first 3-4  strings to achieve the real ska sound. 

  
[Intro]

The intro is just an alternating chord sequence between C and F with a riff over it. This isn't accurate, but 
it's a start.

e|--0h3-8--8-6-5-5-6-5--|
B|----------------------|
G|----------------------|
D|----------------------|
A|----------------------|
E|----------------------|


[Verse]

C               F
Let me point my finger in your nose
C               F
Whoa, its not funny, no no no no
C               F
I can you you lookin' down her shirt
C               F
I can see you lifting up her skirt
C               F                                             G
Only gonna tell you once, only gonna tell you once to just get back!


[Chorus]

F            G
You better stay away from my girlfriend
e|--------------------------------|
B|--------------------------------|
G|--------------------------------|
D|--------------------------------|
A|--3--3-----------3--3-----------|
E|--------5--3--5--------5--3--5--|

F            G
You better stay away from her           
e|E|--------------------------------|
B|--------------------------------|
G|--------------------------------|
D|--------------------------------|
A|--3--3-----------3--3-----------|
E|--------5--3--5--------5--3--5--|

F             G               C             Am           
I'm just giving warning so you get no broken bones
F             G               C
You better leave my girl alone


(Finish with this riff)
e|E|------------------------------------|
B|------------------------------------|
G|--0-0-2-3-0-0-2-3-0-0-2-3-0-0-2-3-5-|
D|------------------------------------|
A|------------------------------------|
E|------------------------------------|

[Verse 2]

C               F
Well, I bet you can understand what i say
C               F
Whoa, I'm really just playin'
C               F
I can see you lookin' down her shirt
C               F
I can see you liftin' up her skirt
C               F                        G
Only gonna tell you twice, ask you really really nice


[Chorus]

F            G
You better stay away from my girlfriend
e|--------------------------------|
B|--------------------------------|
G|--------------------------------|
D|--------------------------------|
A|--3--3-----------3--3-----------|
E|--------5--3--5--------5--3--5--|

F            G
You better stay away from her           
e|--------------------------------|
B|--------------------------------|
G|--------------------------------|
D|--------------------------------|
A|--3--3-----------3--3-----------|
E|--------5--3--5--------5--3--5--|

F             G               C             Am           
I'm just giving warning so you get no broken bones
F             G               C
You better leave my girl alone


[Bridge]

  Palm mute the first few strikes of each chord
e|--------------------------------|
B|--------------------------------|
G|----------------------5-5-5-5-5-|
D|--3-3-3-3-3-5-5-5-5-5-5-5-5-5-5-|
A|--3-3-3-3-3-5-5-5-5-5-3-3-3-3-3-|
E|--1-1-1-1-1-3-3-3-3-3-----------|
This progression will be played then followed by a fill


[Fill 1]

e|--------------|
B|--------------|
G|--------------|
D|--------------|
A|--8-8-8-7-7---|
E|-----------8-8|


[Fill 2]

e|-----------|
B|-----------|
G|-----------|
D|--3-3-3-3/5|
A|-----------|
E|-----------|

Back to fill 1 again:


[Fill 1]

e|------------|
B|------------|
G|------------|
D|------------|
A|--8-8-8-7-7-|
E|-----------8|

Then:


[Fill 3]

e|-------|
B|-------|
G|-------|
D|-------|
A|--7----|
E|----8-8| 

Finish with the chorus Riff we Did:

e|------------------------------------|
B|------------------------------------|
G|--0-0-2-3-0-0-2-3-0-0-2-3-0-0-2-3-5-|
D|------------------------------------|
A|------------------------------------|
E|------------------------------------|

Now go back to the Intro progression of C and F


[Verse3]

C               F
Let me break your neck and crush your skull
C               F
Whoa, you never listen, no no no no
C               F
I can see you lookin' down her shirt
C               F
I can see you liftin' up her skirt
C               F                        G
I've seen too much of you I can't take much more of this


[Chorus]

F            G
You better stay away from my girlfriend
e|--------------------------------|
B|--------------------------------|
G|--------------------------------|
D|--------------------------------|
A|--3--3-----------3--3-----------|
E|--------5--3--5--------5--3--5--|

F            G
You better stay away from her           
e|--------------------------------|
B|--------------------------------|
G|--------------------------------|
D|--------------------------------|
A|--3--3-----------3--3-----------|
E|--------5--3--5--------5--3--5--|

F             G               C             Am           
I'm just giving warning so you get no broken bones
F             G               C
You better leave my girl alone


[Outro]


  Palm mute the first few strikes of each chord
e|--------------------------------|
B|--------------------------------|
G|----------------------5-5-5-5-5-|
D|--3-3-3-3-3-5-5-5-5-5-5-5-5-5-5-|
A|--3-3-3-3-3-5-5-5-5-5-3-3-3-3-3-|
E|--1-1-1-1-1-3-3-3-3-3-----------|
This progression will be played then followed by a fill


[Fill 1]

e|------------|
B|------------|
G|------------|
D|------------|
A|--8-8-8-7-7-|
E|-----------8|


[Fill 2]

e|-----------|
B|-----------|
G|-----------|
D|--3-3-3-3/5|
A|-----------|
E|-----------|

Back to fill 1 again:


[Fill 1]

e|------------|
B|------------|
G|------------|
D|------------|
A|--8-8-8-7-7-|
E|-----------8|

Then:


[Fill 3]

e|-------|
B|-------|
G|-------|
D|-------|
A|--7----|
E|----8-8|
PM--| 

Finish with the chorus Riff we Did:

e|------------------------------------|
B|------------------------------------|
G|--0-0-2-3-0-0-2-3-0-0-2-3-0-0-2-3-5-|
D|------------------------------------|
A|------------------------------------|
E|------------------------------------|



************************************

| h  Hammer-on
| /  Slide up

************************************
Suggest correction
Creating personal tab
Creating personal tab
You can edit any tab online and save it as your Personal.

You can edit, replace or remove any tab part or add personal notes – all changes will be seen only by you.

Personal tabs can be accessed anytime from any device, even offline.
Learn more »
Give kudos to tab author, rate the tab!
1 2 3 4 5
comments
print report bad tab
guest
You may want to rate the tab now too:
select rating
Wanna post a correction for this tab? Suggest correction