Oops, an error
Loading. Please wait.

Party Down bass

version 1
version 1

Whole song

Interactive

2,619 views 1 this week
2 commentsread comments
1 2 3 4 5
x 5
add to favorites
×
Save as Personal and add changes to this tab that will be seen only by you. Learn more ›
×
You can save this tab as Personal to edit and correct it or add notes. All changes will be seen only by you. Learn more »
launch autoscroll
font size
0
reset
guitar tuner
edit
Autoscroll
slow
fast
+/-
esc
set tempo
stop
Difficulty
Reel Big Fish
"Party Down"
Monkeys For Nothin And The Chimps For Free

Intro/verse:

-------------------------------------|
-------------------------------------|
------------------------55-4-55------|
-5-5---2-2--------3-3----------------|
but third and fourth (no words) time is:(*)
-----------------------------------------|
-----------------------------------------|
------------------5^^^-------------------|
-5-5---2-2-----3-3------2-0-2-3^^--------|

prechorus:
---------------------------------------------------------|
------------------------------------------4--4---6--6----|
2-2--2-2--4----5-4---2-2--2-2-4--5-5-554----5--5--7---7--|
-------------5----5---------------------5----------------|

chorus:
we just came to party hardy hardy hardy
(without random genre jumpers those are at the bottom)
-------------------------------------------|
-------------------------------------------|
-------------------2-2-2-4--(5-5-5)--------|
-5-5-555--2-2-222--------------------------|
bass only post chorus:
------------------------------------------------------|
------------------------------------------------------|
-------7--7----------7---7--------7---7---55-4-55-----|
-5-5-5--5------2-2-5---5---3-3--5---5-----------------|

repeat whole up to bass post chorus(but preverse is the same as as *)
bridge:(we won't let you down)
------------------------------------------------|
------------------------------------------------|
------------------------------------------------|
2-2-2-202----3-3-3-323--5-5-5-5-5-5-------------|

bridge 2
----------------------------------------------------|
----------------------------------------------------|
-5-5-5-5--------------------------------------------|
----------3333-2222--00000000000--0-2-3-4-5---------|

---------------------------------------------------------|
---------------------------------------------------------|
---------------------------------------------------------|
-5-5--33-22-11-00-------5555555-333333-222222-1111-000---|

prechorus
chorus a few times
the end on
------------------------------------------|
------------------------------------------|
-------7---7\-----------------------------|
-55--5---5--------------------------------|

diff genres during choruses in order of use
ska/party
----------------------------------------|
----75-4------7-4-----------------------|
-5-5-----7-5-5----7-4-------------------|
----------------------------------------|

disco:
----7---4---5---6----7--4--5--6-------------|
--------------------------------------------|
--5---2---3---4----5--2--3--4---------------|
--------------------------------------------|

country:
----------------------------------------------|
----7--7---7----------------------------------|
--5--5----5--5--------------------------------|
----------------------------------------------|

dub reggae
---------------------------------------------|
---------------------------------------------|
--5-5------5-5-------------------------------|
------7-5-----7-5----------------------------|

club hip hop
-------------------------------------------------|
----------7-5-7--------7-------------------------|
---5-3-5------------------5\---------------------|
-----------------5-3-5---------------------------|

Death Metal
-------------------------------------------|
-------------------------------------------|
-----------555--------------555------------|
--555-333------666--555-333----666---------|

            
            
Suggest correction
Creating personal tab
Creating personal tab
You can edit any tab online and save it as your Personal.

You can edit, replace or remove any tab part or add personal notes – all changes will be seen only by you.

Personal tabs can be accessed anytime from any device, even offline.
Learn more »
comments
print report bad tab
2 comments total.
0 reply
ChikiChikiwa 83 Sep 19, 2007 09:10 AM

Very nice! 5*

0 reply
ChikiChikiwa 83 Sep 20, 2007 06:47 AM

...oh and most probably know this but ends with a..

---------
---------
---7---7-
-5---5---

like in the post chorus. =)

guest
Wanna post a correction for this tab? Suggest correction