Oops, an error
Loading. Please wait.

Sell Out guitar pro

version 1
version 1

Whole song

Interactive

13,071 views 9 this week
2 commentsread comments
1 2 3 4 5
x 11
add to favorites
guitar tuner
Autoscroll
slow
fast
+/-
esc
set tempo
stop
Author
File Format
Filesize
Instruments
.gp5
69 Kb
rhythm_guitars, lead_guitars, basses, percussions, others
"Sell Out"
demo version
Play now

or get full version for Free

×
Get full version now!
Learn and play this song
in Tab Pro
Try for free

or get $10 off Welcome Bonus

Get welcome bonus
Get access to Tab Pro version of “Sell Out”!
Tab Pro is a premium guitar tab service, available on PC, Mac, iOS and Android
TRY FOR FREE
Your download will start in 7 seconds
×
Like this song? We have more! Follow us on Facebook for daily tips, lessons and other guitar-related content.
To download “Sell Out” Guitar Pro tab click button below
Please note that you must have Guitar Pro software installed on your
computer in order to view this file.
Suggest correction
comments
report bad tab
2 comments total.
0 reply
santhony1987 50 Feb 12, 2007 12:16 PM

Hey, nice work dude.

0 reply
Haislotus 41 Jun 07, 2012 01:18 PM

Perfect dude, except for one tiny flaw (sorry for sounding like I'm insulting you, I can assure you that I'm not, it's just a tiny detail I noticed from listening to this song to death)

Bar 131 is currently:

e-------------------
B-------------------
G-5-5-5-5-5-6-------
D-5-5-5-5-5-6-------
A-3-3-3-3-3-4-------
E-------------------


Whereas Bar 131 should be:

e------------------
B------------------
G-----------6------
D-8-8-8-8-8-6------
A-8-8-8-8-8-4------
E-6-6-6-6-6--------


And Bar 135/136/137 are currently:

e-------------------
B-------------------
G-5-5-5-5-5-6-------
D-5-5-5-5-5-6-------
A-3-3-3-3-3-4-------
E-------------------

e-------------------
B-------------------
G-6-6-6-6-6---------
D-6-6-6-6-6-6-------
A-4-4-4-4-4-6-------
E-----------4-------

e-------------------
B-------------------
G-----------8-------
D-6-6-6-6-6-8-------
A-6-6-6-6-6-6-------
E-4-4-4-4-4---------


Whereas Bars 135/136/137 should be:

e------------------
B------------------
G-----------5------
D-8-8-8-8-8-5------
A-8-8-8-8-8-3------
E-6-6-6-6-6--------

e-------------------
B-------------------
G-5-5-5-5-5-6-------
D-5-5-5-5-5-6-------
A-3-3-3-3-3-4-------
E------------------

e-------------------
B-------------------
G-6-6-6-6-6-8-------
D-6-6-6-6-6-8-------
A-4-4-4-4-4-6-------
E-------------------


And obviously the bass should be changed correspondingly, other than that man completely flawless, great job ;) .

guest
You may want to rate the tab now too:
select rating