Oops, an error
Loading. Please wait.

Sell Out tab

version 3
version 3

Whole song

  • The other version is has some wrong chords, the cl... Show more

Interactive

202 views 1 this week
no commentswrite comment
1 2 3 4 5
2 more votes to show rating
add to favorites
×
Save as Personal and add changes to this tab that will be seen only by you. Learn more ›
×
You can save this tab as Personal to edit and correct it or add notes. All changes will be seen only by you. Learn more »
launch autoscroll
font size
0
reset
how to read this tab
guitar tuner
backing track
0:00
0:00
edit
Autoscroll
slow
fast
+/-
esc
set tempo
stop
Author
About this tab version
The other version is has some wrong chords, the clean parts are different, and it doesn't have the ending. Was this info helpful? Yes No
-------------------------------------------------------------------------------
                             Sell Out - Reel Big Fish 
-------------------------------------------------------------------------------

Intro:


E|-------------------------|
B|-------------------------|
G|-------------------------|
D|-6-6-5-5-6-----5-8---3-6-|  X3
A|-6-6-5-5-6---6-----4-----|
E|-4-4-3-3-4---------------|

E|----------------------------|
B|----------------------------|
G|------------7/8p7p8p7p8p7p8-|
D|-6-6-5-5-6------------------|
A|-6-6-5-5-6------------------|
E|-4-4-3-3-4------------------|

Preverse:

E|-4-4-4-4--6-6-6-6-------------------|
B|-4-4-4-4--6-6-6-6--6-6-6-6--8-8-8-8-|
G|-5-5-5-5--6-6-6-6--6-6-6-6--8-8-8-8-|
D|-6-6-6-6--8-8-8-8--6-6-6-6--8-8-8-8-| X4
A|-6-6-6-6--8-8-8-8--4-4-4-4--6-6-6-6-|
E|-4-4-4-4--6-6-6-6-------------------|

Verse: 


E|-4-4-4-4--6-6-6-6-------------------|
B|-4-4-4-4--6-6-6-6--6-6-6-6--8-8-8-8-|
G|-5-5-5-5--6-6-6-6--6-6-6-6--8-8-8-8-|
D|-6-6-6-6--8-8-8-8--6-6-6-6--8-8-8-8-| x4
A|-6-6-6-6--8-8-8-8--4-4-4-4--6-6-6-6-|
E|-4-4-4-4--6-6-6-6-------------------|

E|-4-4-4-4--6-6-6-6----------|
B|-4-4-4-4--6-6-6-6--6-6-6-6-|
G|-5-5-5-5--6-6-6-6--6-6-6-6-|
D|-6-6-6-6--8-8-8-8--6-6-6-6-| 
A|-6-6-6-6--8-8-8-8--4-4-4-4-|
E|-4-4-4-4--6-6-6-6----------|

E|-----------------------------------|
B|-----------------------------------|
G|--5-5-5-5--6-6-6-6--8-8-8-8-8-8-8--|
D|--5-5-5-5--6-6-6-6--8-8-8-8-8-8-8--|
A|--3-3-3-3--4-4-4-4--6-6-6-6-6-6-6--|
E|-----------------------------------|

Prechorus:

E|--------4-4-6--3-3--6-6-|
B|-6-6-6--4-4-6--4-4--6-6-|
G|-6-6-6--5-5-5--5-5--6-6-|
D|-6-6-6--6-6-6--5-5--8-8-| x3
A|-4-4-4--6-6-6--3-3--8-8-|
E|--------4-4-4-------6-6-|

E|-----------------------|
B|-----------------------|
G|--6-6-6-6--8-8--5-6-8\-|
D|--6-6-6-6--x-x--x-x-x\-| 
A|--4-4-4-4--6-6--3-4-6\-|
E|-----------------------|

Chorus:

E|-4-4-4-4-----------|
B|-4-4-4-4--6-6--8-8-|
G|-5-5-5-5--6-6--8-8-|
D|-6-6-6-6--6-6--8-8-| x4
A|-6-6-6-6--4-4--6-6-|
E|-4-4-4-4-----------|

Preverse
Verse
Prechorus
Chorus

E|--------------|
B|-X-X-X--X-X-X-|
G|-X-X-X--X-X-X-|
D|-X-X-X--X-X-X-| 
A|-X-X-X--X-X-X-|
E|--------------|

E|-------------------------|
B|-------------------------|
G|-------------------------|
D|-6-6-5-5-6-----5-8---3-6-|  X3
A|-6-6-5-5-6---6-----4-----|
E|-4-4-3-3-4---------------|

E|---------|
B|---------|
G|-8-8888--| 
D|-8-8888--| 
A|-6-6666--|
E|---------|
 PM.........

Bridge:

E|--3-3-3-3-----------4-4-4-4-4-4-4-4-4-4-4-|
B|--6-6-6-6--6-6-6-6--4-4-4-4-4-4-4-4-4-4-4-|
G|--5-5-5-5--6-6-6-6--5-5-5-5-5-5-5-5-5-5-5-|
D|--5-5-5-5--6-6-6-6--6-6-6-6-6-6-6-6-6-6-6-| x2
A|--3-3-3-3--4-4-4-4--6-6-6-6-6-6-6-6-6-6-6-|
E|--------------------4-4-4-4-4-4-4-4-4-4-4-| 
                          .......

E|--6-6-6-6-----------4-4-4-4-4-4-4-4-4-4-4-|
B|--6-6-6-6--6-6-6-6--4-4-4-4-4-4-4-4-4-4-4-|
G|--6-6-6-6--6-6-6-6--5-5-5-5-5-5-5-5-5-5-5-|
D|--8-8-8-8--6-6-6-6--6-6-6-6-6-6-6-6-6-6-6-| 
A|--8-8-8-8--4-4-4-4--6-6-6-6-6-6-6-6-6-6-6-|
E|--6-6-6-6-----------4-4-4-4-4-4-4-4-4-4-4-| 

E|--3-3-3-3-----------4-4-4-4--------------|
B|--6-6-6-6--6-6-6-6--4-4-4-4--8-8-8-8-8-8-|
G|--5-5-5-5--6-6-6-6--5-5-5-5--8-8-8-8-8-8-|
D|--5-5-5-5--6-6-6-6--6-6-6-6--8-8-8-8-8-8-| 
A|--3-3-3-3--4-4-4-4--6-6-6-6--6-6-6-6-6-6-|
E|--------------------4-4-4-4--------------|

Prechorus
Chorus

E|----------|
B|----X-X-X-|
G|-6--X-X-X-|
D|-6--X-X-X-| 
A|-4--X-X-X-|
E|----------|

E|-4-4-4-4--6-6-6-6-------------------|
B|-4-4-4-4--6-6-6-6--6-6-6-6--8-8-8-8-|
G|-5-5-5-5--6-6-6-6--6-6-6-6--8-8-8-8-|
D|-6-6-6-6--8-8-8-8--6-6-6-6--8-8-8-8-| X3
A|-6-6-6-6--8-8-8-8--4-4-4-4--6-6-6-6-|
E|-4-4-4-4--6-6-6-6-------------------|

E|-4-4-4-4--6-6-6-6-------|
B|-4-4-4-4--6-6-6-6--6--8-|
G|-5-5-5-5--6-6-6-6--6--8-|
D|-6-6-6-6--8-8-8-8--6--8-| 
A|-6-6-6-6--8-8-8-8--4--6-|
E|-4-4-4-4--6-6-6-6-------|

E|-4-4-4-4--6-6-6-6-------------------|
B|-4-4-4-4--6-6-6-6--6-6-6-6--8-8-8-8-|
G|-5-5-5-5--6-6-6-6--6-6-6-6--8-8-8-8-|
D|-6-6-6-6--8-8-8-8--6-6-6-6--8-8-8-8-| X2
A|-6-6-6-6--8-8-8-8--4-4-4-4--6-6-6-6-|      
E|-4-4-4-4--6-6-6-6-------------------| 

e|---------------------------------------|
B|---------------------------------------|
G|-----5-6-8--6-5-6-5--8-6-5-6-5--5-6-5--|
D|-6-8---------------6----------6------6-|
A|---------------------------------------|
E|---------------------------------------|
                                      

End:

E|----|
B|----|
G|-13-| 
D|--x-| x22
A|-11-|
E|----|

E|---------------|
B|---------------|
G|-8-8--6\8/6----| 
D|-x-x--x\x/x--6-| 
A|-6-6--4\6/4--6-|
E|-------------4-|

            
            
Suggest correction
Creating personal tab
Creating personal tab
You can edit any tab online and save it as your Personal.

You can edit, replace or remove any tab part or add personal notes – all changes will be seen only by you.

Personal tabs can be accessed anytime from any device, even offline.
Learn more »
Give kudos to tab author, rate the tab!
1 2 3 4 5
comments
print report bad tab
guest
You may want to rate the tab now too:
select rating
Wanna post a correction for this tab? Suggest correction