Oops, an error
Loading. Please wait.

She Has A Girlfriend Now bass

version 3
version 3

Whole song

Interactive

5,361 views 3 this week
no commentswrite comment
1 2 3 4 5
2 more votes to show rating
add to favorites
×
Save as Personal and add changes to this tab that will be seen only by you. Learn more ›
×
You can save this tab as Personal to edit and correct it or add notes. All changes will be seen only by you. Learn more »
launch autoscroll
font size
0
reset
guitar tuner
edit
Autoscroll
slow
fast
+/-
esc
set tempo
stop
Tuning: E, A, D, G

intro:
G||--------------------|
D||--------------------|
A||--6--6-----6--------|
E||-------6-8----44-66-|

horns, chorus, verse:
G||--------------------------------|
D||------8-------------------------|
A||--6-6--6---10------6--10-10-8-6-|
E||----------8--8--4-4-4-----------|

pre chorus ("she said she's found someone..."), trombone solo:
G||-------------------------|
D||---8---------------------|
A||--6-6----10-----6-----8--|
E||--------8--8---4-4---6-6-|

"she don't need nobody to be her man" (right before chorus):
G||------------|
D||------------|
A||------------|
E||-4~~--66-66-|

outro:
G||--------------------|
D||--------------------|
A||-666-3-3------------|
E||----------4-444-646-|

end with:
G||---------------|
D||---------------|
A||-666-3-3-------|
E||----------4~~~-|


intro 1x
horns 4x
chorus 3x
intro 1x
verse 4x
pre-chorus 3x
"she don't need nobody.."
chorus 3x
intro 1x
horns 4x
trombone solo 4x
pre chorus 3x
"she don't need nobody.." 1x
chorus 3x
intro 1x
no bass..
chorus 2x
no bass..

G||------|
D||------|
A||------|
E||--646-|

outro 7x
end 1x

enjoy. haha. it's not a hundred percent accurate but it's close enough. hehe.

for any comments, suggestions. email me: pauline_jakz@yahoo.com

            
            
Suggest correction
Creating personal tab
Creating personal tab
You can edit any tab online and save it as your Personal.

You can edit, replace or remove any tab part or add personal notes – all changes will be seen only by you.

Personal tabs can be accessed anytime from any device, even offline.
Learn more »
Give kudos to tab author, rate the tab!
1 2 3 4 5
comments
print report bad tab
guest
Wanna post a correction for this tab? Suggest correction