Oops, an error
Loading. Please wait.

Take On Me bass

version 2
version 2

Whole song

Interactive

28,935 views 21 this week
3 commentsread comments
1 2 3 4 5
x 11
add to favorites
×
Save as Personal and add changes to this tab that will be seen only by you. Learn more ›
×
You can save this tab as Personal to edit and correct it or add notes. All changes will be seen only by you. Learn more »
launch autoscroll
font size
0
reset
guitar tuner
backing track
0:00
0:00
edit
Autoscroll
slow
fast
+/-
esc
set tempo
stop
Author
Difficulty
Artist: Reel Big Fish
Song: Take On Me


Intro:
G-----------------------------------------------|I
D-----------------------------------------------|I
A-----------------------------------------------|I
E-7~---77-77-77-77-77-77-7-7-7-7----------------|I

Pre Verse/Verse:
G-----------------------------------------------|I
D----9-7---------9-------7-5--------------------|I
A--------9-7-7-7---7---------7-5-5-5-4h5p4------|I
E-7-7----------------5-5------------------------|I

Pre-Chorus:
G-------------------------------|I
D-------------------------------|I
A-------------------------------|I
E-5/10-5/10-5/10----------------|I


Chorus:
G--------------------------------------|I
D--------------------------------------|I
A-------77777-99999-55445--------------|I
E-55555--------------------------------|I

Change Rhythm

Chorus:
G-----------------------------------------|I
D-----------------------------------------|I
A---------77777777-99999999-55544455------|I
E-55555555--------------------------------|I

Pre Verse/Verse:
G-----------------------------------------------|I
D----9-7---------9-------7-5--------------------|I
A--------9-7-7-7---7---------7-5-5-5-4h5p4------|I
E-7-7----------------5-5------------------------|I

Pre-Chorus:
G-------------------------------|I
D-------------------------------|I
A-------------------------------|I
E-5/10-5/10-5/10----------------|I


Chorus:
G--------------------------------------|I
D--------------------------------------|I
A-------77777-99999-55445--------------|I
E-55555--------------------------------|I

Change Rhythm

Chorus:
G-----------------------------------------|I
D-----------------------------------------|I
A---------77777777-99999999-55544455------|I
E-55555555--------------------------------|I

Bridge:
G----------------------------------------------------7----9-10-----(ten)-------|I
D----4------4------5----5----5---5-----4-----4----55--5-7--8--10---(ten)-------|I
A---4------4-----33-3-33-3-33-33------4-----4--------------------------2~/6h7--|I
E-22-----22-------------------------22----22-----------------------------------|I

Pre Verse/Verse:
G---------------------------------------------------------|I
D--------------9-7---------9-------7-5--------------------|I
A------------------9-7-7-7---7---------7-5-5-5-4h5p4------|I
E-7~-7~-14\7-7----------------5-5-------------------------|I

Variation:

G-----------------------9--7--6-------------------|I
D----9-7---------9---77--7--7-----9-7--------9----|I
A--------9-7-7-7---7-----------------9-7-7-7---7--|I
E-7-7--------------------------7-7----------------|I

Chorus:
G-----------------------------------------|I
D-----------------------------------------|I
A---------77777777-99999999-55544455------|I
E-55555555--------------------------------|I

WAHEY! 80's songs were made to be punked out!



            
            
Suggest correction
Creating personal tab
Creating personal tab
You can edit any tab online and save it as your Personal.

You can edit, replace or remove any tab part or add personal notes – all changes will be seen only by you.

Personal tabs can be accessed anytime from any device, even offline.
Learn more »
comments
print report bad tab
3 comments total.
0 reply
bonehade 72 Dec 11, 2008 02:58 PM

this sounds good but it's not how the song is really played on bass
theres a perfect tab on bassmasta

0 reply
\m/(^.^)\m/-666 10 Mar 09, 2009 12:21 PM

this is perfect, and it looks really hard but its quite easy once you play it once through, belter tab =]

0 reply
Jernimo 95 Apr 22, 2017 09:09 AM

I think there are a few variations during the final chorus but nothing major. Might be worth noting the variation is played after one line of the verse, and I think it's played:
Variation:

G-----------------------9--77--66-----------------------|I
D----9-7---------9---77--7---77--77----9-7---------9----|I
A--------9-7-7-7---7-----------------------9-7-7-7---7--|I
E-7-7-------------------------------7-7-----------------|I

But not entirely sure about that. He's definitely playing more notes than is in the tab though.

Apart from that, great tab though.

guest
You may want to rate the tab now too:
select rating
Wanna post a correction for this tab? Suggest correction