Oops, an error
Loading. Please wait.

Talkin Bout A Revolution bass

1,521 views 3 this week
no commentswrite comment
1 2 3 4 5
3 more votes to show rating
add to favorites
×
Save as Personal and add changes to this tab that will be seen only by you. Learn more ›
×
You can save this tab as Personal to edit and correct it or add notes. All changes will be seen only by you. Learn more »
launch autoscroll
font size
0
reset
guitar tuner
edit
Autoscroll
slow
fast
+/-
esc
set tempo
stop
Album: Our Live Album Is Better Than Your Live Album

-------------------------------------------------------------------------------
			 Talkin' Bout A Revolution - Reel Big Fish
-------------------------------------------------------------------------------

Tuning: Standard

I tried to figure out the whole song, but it's pretty difficult. This is what I've 
out.

s=slide

Intro:

G---------------------------------------------------|
D-------3---------------------------3---------------|
A----------1-1--s5-5--3-0--0-----------1-1--s5-5----|
E-1-1---------------------3---1-1-------------------|


The remaining Song goes something like this:

G------------------------------------------------------------|
D-------3---------------------------3------------------------|
A----------1-1--s5-5--3-0--0-----------1-1--s5-5--3-0--0--0--|
E-1-1---------------------3---1-1------------------------3---|

            
            
Suggest correction
Creating personal tab
Creating personal tab
You can edit any tab online and save it as your Personal.

You can edit, replace or remove any tab part or add personal notes – all changes will be seen only by you.

Personal tabs can be accessed anytime from any device, even offline.
Learn more »
Give kudos to tab author, rate the tab!
1 2 3 4 5
comments
print report bad tab
guest
Wanna post a correction for this tab? Suggest correction