Oops, an error
Loading. Please wait.

The New Version Of You bass

324 views 1 this week
no commentswrite comment
1 2 3 4 5
1 last vote to show rating
add to favorites
×
Save as Personal and add changes to this tab that will be seen only by you. Learn more ›
×
You can save this tab as Personal to edit and correct it or add notes. All changes will be seen only by you. Learn more »
launch autoscroll
font size
0
reset
guitar tuner
edit
Autoscroll
slow
fast
+/-
esc
set tempo
stop
Intro
G|---------------------------|---------------------------| X2
D|-------------3--2----------|-------------3--2----------|
A|-------------------3--2----|-------------------3--2----|
E|-0-h-3--5------------------|-0-h-3--5------------------|


Main Riff
G|---------------------------------------------------------|  X6
D|-------------------7-----5-------------------------------|
A|---------7-----5-5---5-7---5----------5-5-5-5-5h7p5------|
E|-3-/-5-5---5-7---------------3--3-h-5---------------7-5--|

Pre-Chorus
G|------------------------------------------------------------------|
D|------------------------------------------------------------------|
A|-22222222-----------------------------22222222--------------------|
E|-----------33333333-55555555-55555555-----------33333333-00000000-|
 
G|-----------|
D|-----------|
A|-77777777--|
E|-----------|

Chorus
G|-------------------------------------------------|  X2
D|-------------------------------------------------|
A|---------5-5-7-7---------5-5-7-7-----------------|
E|-5-5-5-5---------5-5-5-5-------------------------|

Chorus tail…….. KILL THE  
G|-------------------------------------------------|
D|-------------------------------------------------|
A|-------------------------------------------------|
E|-5--5-5--2--2-2-11-1----0------------------------|


  Outro A                                               X4
G|-------------------------------------------------|
D|-------------------------------------------------|
A|-------------------------------------------------|
E|-22222222333333335555555-------------------------|

  Bass fill in chorus + Outro B doubles the speed up
G|-------------------------------------------------|
D|-------------------------------------------------|
A|---------5-5-7-7---------5-5---------------------|
E|-5-5-5-5---------5-5-5-5-----0-0-----------------|

Intro x4                       Chorus tail
Main Riff x6              i ntro riff x 2
Pre-chorus                    Outro A x5
Chorus x2                     Pre-chorus
Chorus tail                     Chorus x2
Main Riff x6                  Chorus tail
Pre-chorus                         Outro b
Chorus x3 

            
            
Suggest correction
Creating personal tab
Creating personal tab
You can edit any tab online and save it as your Personal.

You can edit, replace or remove any tab part or add personal notes – all changes will be seen only by you.

Personal tabs can be accessed anytime from any device, even offline.
Learn more »
Give kudos to tab author, rate the tab!
1 2 3 4 5
comments
print report bad tab
guest
Wanna post a correction for this tab? Suggest correction